  0
SECTION
  2
HEADER
  9
$ACADVER
  1
AC1021
  9
$ACADMAINTVER
 70
    50
  9
$DWGCODEPAGE
  3
ANSI_1252
  9
$TITLE
  1
ZIMA 125-200 / Internet 2D
  9
$CUSTOMPROPERTYTAG
  1
Manager
  9
$CUSTOMPROPERTY
  1

  9
$CUSTOMPROPERTYTAG
  1
Firma
  9
$CUSTOMPROPERTY
  1

  9
$CUSTOMPROPERTYTAG
  1
Kategorie
  9
$CUSTOMPROPERTY
  1

  9
$CUSTOMPROPERTYTAG
  1
Bauteilnummer
  9
$CUSTOMPROPERTY
  1
121700
  9
$CUSTOMPROPERTYTAG
  1
Bezeichnung
  9
$CUSTOMPROPERTY
  1
Zeparo
  9
$CUSTOMPROPERTYTAG
  1
Projekt
  9
$CUSTOMPROPERTY
  1

  9
$CUSTOMPROPERTYTAG
  1
Konstrukteur
  9
$CUSTOMPROPERTY
  1
SCG
  9
$CUSTOMPROPERTYTAG
  1
Ingenieur
  9
$CUSTOMPROPERTY
  1

  9
$CUSTOMPROPERTYTAG
  1
Bevollmächtigter
  9
$CUSTOMPROPERTY
  1

  9
$CUSTOMPROPERTYTAG
  1
Kostenstelle
  9
$CUSTOMPROPERTY
  1

  9
$CUSTOMPROPERTYTAG
  1
Zulieferer
  9
$CUSTOMPROPERTY
  1

  9
$CUSTOMPROPERTYTAG
  1
Benutzerstatus
  9
$CUSTOMPROPERTY
  1

  9
$CUSTOMPROPERTYTAG
  1
Konstruktionsstatus
  9
$CUSTOMPROPERTY
  1
InBearbeitung
  9
$CUSTOMPROPERTYTAG
  1
Kontrolliert von
  9
$CUSTOMPROPERTY
  1

  9
$CUSTOMPROPERTYTAG
  1
Konstruktion genehmigt von
  9
$CUSTOMPROPERTY
  1

  9
$CUSTOMPROPERTYTAG
  1
Fertigung genehmigt von
  9
$CUSTOMPROPERTY
  1

  9
$CUSTOMPROPERTYTAG
  1
Gewicht
  9
$CUSTOMPROPERTY
  1

  9
$CUSTOMPROPERTYTAG
  1
AeDatum1
  9
$CUSTOMPROPERTY
  1
  
  9
$CUSTOMPROPERTYTAG
  1
AeDesc1
  9
$CUSTOMPROPERTY
  1

  9
$CUSTOMPROPERTYTAG
  1
AeIDX1
  9
$CUSTOMPROPERTY
  1

  9
$CUSTOMPROPERTYTAG
  1
TolLange_Fein
  9
$CUSTOMPROPERTY
  1

  9
$CUSTOMPROPERTYTAG
  1
TolLange_Grob
  9
$CUSTOMPROPERTY
  1

  9
$CUSTOMPROPERTYTAG
  1
TolLange_Mittel
  9
$CUSTOMPROPERTY
  1
X
  9
$CUSTOMPROPERTYTAG
  1
TolWinkel_Fein
  9
$CUSTOMPROPERTY
  1

  9
$CUSTOMPROPERTYTAG
  1
TolWinkel_Grob
  9
$CUSTOMPROPERTY
  1
X
  9
$CUSTOMPROPERTYTAG
  1
ProtoTyp_NR
  9
$CUSTOMPROPERTY
  1
1
  9
$CUSTOMPROPERTYTAG
  1
AeDatum2
  9
$CUSTOMPROPERTY
  1
  
  9
$CUSTOMPROPERTYTAG
  1
AeDatum3
  9
$CUSTOMPROPERTY
  1
  
  9
$CUSTOMPROPERTYTAG
  1
AeDatum4
  9
$CUSTOMPROPERTY
  1
  
  9
$CUSTOMPROPERTYTAG
  1
AeDatum5
  9
$CUSTOMPROPERTY
  1
  
  9
$CUSTOMPROPERTYTAG
  1
AeDesc2
  9
$CUSTOMPROPERTY
  1

  9
$CUSTOMPROPERTYTAG
  1
AeDesc3
  9
$CUSTOMPROPERTY
  1

  9
$CUSTOMPROPERTYTAG
  1
AeDesc4
  9
$CUSTOMPROPERTY
  1

  9
$CUSTOMPROPERTYTAG
  1
AeDesc5
  9
$CUSTOMPROPERTY
  1

  9
$CUSTOMPROPERTYTAG
  1
AeIDX2
  9
$CUSTOMPROPERTY
  1

  9
$CUSTOMPROPERTYTAG
  1
AeIDX3
  9
$CUSTOMPROPERTY
  1

  9
$CUSTOMPROPERTYTAG
  1
AeIDX4
  9
$CUSTOMPROPERTY
  1

  9
$CUSTOMPROPERTYTAG
  1
AeIDX5
  9
$CUSTOMPROPERTY
  1

  9
$CUSTOMPROPERTYTAG
  1
Fachgeprüft_am
  9
$CUSTOMPROPERTY
  1

  9
$CUSTOMPROPERTYTAG
  1
Fachgeprüft_von
  9
$CUSTOMPROPERTY
  1

  9
$CUSTOMPROPERTYTAG
  1
ZeichnungsNummer
  9
$CUSTOMPROPERTY
  1

  9
$CUSTOMPROPERTYTAG
  1
AIMD_MATERIAL
  9
$CUSTOMPROPERTY
  1

  9
$CUSTOMPROPERTYTAG
  1
AIMD_WEIGHT
  9
$CUSTOMPROPERTY
  1
2.753
  9
$CUSTOMPROPERTYTAG
  1
AIMD_DESCRIPTION
  9
$CUSTOMPROPERTY
  1
Zeparo
  9
$CUSTOMPROPERTYTAG
  1
AIMD_ORIGIN
  9
$CUSTOMPROPERTY
  1

  9
$CUSTOMPROPERTYTAG
  1
AIMD_PARTNO
  9
$CUSTOMPROPERTY
  1
7880200
  9
$CUSTOMPROPERTYTAG
  1
AIMD_WEIGHT_UNIT
  9
$CUSTOMPROPERTY
  1
kg
  9
$CUSTOMPROPERTYTAG
  1
Einheit
  9
$CUSTOMPROPERTY
  1
Stk
  9
$CUSTOMPROPERTYTAG
  1
Massstab
  9
$CUSTOMPROPERTY
  1
1:2
  9
$INSBASE
 10
0.0
 20
0.0
 30
0.0
  9
$EXTMIN
 10
0.0
 20
0.0
 30
0.0
  9
$EXTMAX
 10
1188.0
 20
840.0
 30
0.0
  9
$LIMMIN
 10
0.0
 20
0.0
  9
$LIMMAX
 10
1188.0
 20
840.0
  9
$ORTHOMODE
 70
     0
  9
$REGENMODE
 70
     1
  9
$FILLMODE
 70
     1
  9
$QTEXTMODE
 70
     0
  9
$MIRRTEXT
 70
     0
  9
$LTSCALE
 40
2.0
  9
$ATTMODE
 70
     1
  9
$TEXTSIZE
 40
0.2
  9
$TRACEWID
 40
0.05
  9
$TEXTSTYLE
  7
Standard
  9
$CLAYER
  8
0
  9
$CELTYPE
  6
ByLayer
  9
$CECOLOR
 62
   256
  9
$CELTSCALE
 40
1.0
  9
$DISPSILH
 70
     0
  9
$DIMSCALE
 40
1.0
  9
$DIMASZ
 40
1.799999999999999
  9
$DIMEXO
 40
0.0625
  9
$DIMDLI
 40
0.38
  9
$DIMRND
 40
0.0
  9
$DIMDLE
 40
0.0
  9
$DIMEXE
 40
0.18
  9
$DIMTP
 40
0.0
  9
$DIMTM
 40
0.0
  9
$DIMTXT
 40
0.3499999940395355
  9
$DIMCEN
 40
0.09
  9
$DIMTSZ
 40
0.0
  9
$DIMTOL
 70
     0
  9
$DIMLIM
 70
     0
  9
$DIMTIH
 70
     1
  9
$DIMTOH
 70
     1
  9
$DIMSE1
 70
     0
  9
$DIMSE2
 70
     0
  9
$DIMTAD
 70
     0
  9
$DIMZIN
 70
     0
  9
$DIMBLK
  1

  9
$DIMASO
 70
     1
  9
$DIMSHO
 70
     1
  9
$DIMPOST
  1

  9
$DIMAPOST
  1

  9
$DIMALT
 70
     0
  9
$DIMALTD
 70
     2
  9
$DIMALTF
 40
25.4
  9
$DIMLFAC
 40
1.0
  9
$DIMTOFL
 70
     0
  9
$DIMTVP
 40
0.0
  9
$DIMTIX
 70
     0
  9
$DIMSOXD
 70
     0
  9
$DIMSAH
 70
     0
  9
$DIMBLK1
  1

  9
$DIMBLK2
  1

  9
$DIMSTYLE
  2
Standard
  9
$DIMCLRD
 70
     0
  9
$DIMCLRE
 70
     0
  9
$DIMCLRT
 70
     0
  9
$DIMTFAC
 40
1.0
  9
$DIMGAP
 40
0.09
  9
$DIMJUST
 70
     0
  9
$DIMSD1
 70
     0
  9
$DIMSD2
 70
     0
  9
$DIMTOLJ
 70
     1
  9
$DIMTZIN
 70
     0
  9
$DIMALTZ
 70
     0
  9
$DIMALTTZ
 70
     0
  9
$DIMUPT
 70
     0
  9
$DIMDEC
 70
     4
  9
$DIMTDEC
 70
     4
  9
$DIMALTU
 70
     2
  9
$DIMALTTD
 70
     2
  9
$DIMTXSTY
  7
Standard
  9
$DIMAUNIT
 70
     0
  9
$DIMADEC
 70
     0
  9
$DIMALTRND
 40
0.0
  9
$DIMAZIN
 70
     0
  9
$DIMDSEP
 70
    46
  9
$DIMATFIT
 70
     3
  9
$DIMFRAC
 70
     0
  9
$DIMLDRBLK
  1

  9
$DIMLUNIT
 70
     2
  9
$DIMLWD
 70
    -2
  9
$DIMLWE
 70
    -2
  9
$DIMTMOVE
 70
     0
  9
$DIMFXL
 40
1.0
  9
$DIMFXLON
 70
     0
  9
$DIMJOGANG
 40
0.7853981633974483
  9
$DIMTFILL
 70
     0
  9
$DIMTFILLCLR
 70
     0
  9
$DIMARCSYM
 70
     0
  9
$DIMLTYPE
  6

  9
$DIMLTEX1
  6

  9
$DIMLTEX2
  6

  9
$LUNITS
 70
     2
  9
$LUPREC
 70
     4
  9
$SKETCHINC
 40
0.1
  9
$FILLETRAD
 40
0.0
  9
$AUNITS
 70
     0
  9
$AUPREC
 70
     0
  9
$MENU
  1
.
  9
$ELEVATION
 40
0.0
  9
$PELEVATION
 40
0.0
  9
$THICKNESS
 40
0.0
  9
$LIMCHECK
 70
     0
  9
$CHAMFERA
 40
0.0
  9
$CHAMFERB
 40
0.0
  9
$CHAMFERC
 40
0.0
  9
$CHAMFERD
 40
0.0
  9
$SKPOLY
 70
     0
  9
$TDCREATE
 40
2455344.578939745
  9
$TDUCREATE
 40
2455344.495606412
  9
$TDUPDATE
 40
2455344.578939745
  9
$TDUUPDATE
 40
2455344.495606412
  9
$TDINDWG
 40
0.0000291204
  9
$TDUSRTIMER
 40
0.0000291204
  9
$USRTIMER
 70
     1
  9
$ANGBASE
 50
0.0
  9
$ANGDIR
 70
     0
  9
$PDMODE
 70
     0
  9
$PDSIZE
 40
0.0
  9
$PLINEWID
 40
0.0
  9
$SPLFRAME
 70
     0
  9
$SPLINETYPE
 70
     6
  9
$SPLINESEGS
 70
     8
  9
$HANDSEED
  5
477
  9
$SURFTAB1
 70
     6
  9
$SURFTAB2
 70
     6
  9
$SURFTYPE
 70
     6
  9
$SURFU
 70
     6
  9
$SURFV
 70
     6
  9
$UCSBASE
  2

  9
$UCSNAME
  2

  9
$UCSORG
 10
0.0
 20
0.0
 30
0.0
  9
$UCSXDIR
 10
1.0
 20
0.0
 30
0.0
  9
$UCSYDIR
 10
0.0
 20
1.0
 30
0.0
  9
$UCSORTHOREF
  2

  9
$UCSORTHOVIEW
 70
     0
  9
$UCSORGTOP
 10
0.0
 20
0.0
 30
0.0
  9
$UCSORGBOTTOM
 10
0.0
 20
0.0
 30
0.0
  9
$UCSORGLEFT
 10
0.0
 20
0.0
 30
0.0
  9
$UCSORGRIGHT
 10
0.0
 20
0.0
 30
0.0
  9
$UCSORGFRONT
 10
0.0
 20
0.0
 30
0.0
  9
$UCSORGBACK
 10
0.0
 20
0.0
 30
0.0
  9
$PUCSBASE
  2

  9
$PUCSNAME
  2

  9
$PUCSORG
 10
0.0
 20
0.0
 30
0.0
  9
$PUCSXDIR
 10
1.0
 20
0.0
 30
0.0
  9
$PUCSYDIR
 10
0.0
 20
1.0
 30
0.0
  9
$PUCSORTHOREF
  2

  9
$PUCSORTHOVIEW
 70
     0
  9
$PUCSORGTOP
 10
0.0
 20
0.0
 30
0.0
  9
$PUCSORGBOTTOM
 10
0.0
 20
0.0
 30
0.0
  9
$PUCSORGLEFT
 10
0.0
 20
0.0
 30
0.0
  9
$PUCSORGRIGHT
 10
0.0
 20
0.0
 30
0.0
  9
$PUCSORGFRONT
 10
0.0
 20
0.0
 30
0.0
  9
$PUCSORGBACK
 10
0.0
 20
0.0
 30
0.0
  9
$USERI1
 70
     0
  9
$USERI2
 70
     0
  9
$USERI3
 70
     0
  9
$USERI4
 70
     0
  9
$USERI5
 70
     0
  9
$USERR1
 40
0.0
  9
$USERR2
 40
0.0
  9
$USERR3
 40
0.0
  9
$USERR4
 40
0.0
  9
$USERR5
 40
0.0
  9
$WORLDVIEW
 70
     1
  9
$SHADEDGE
 70
     3
  9
$SHADEDIF
 70
    70
  9
$TILEMODE
 70
     1
  9
$MAXACTVP
 70
    64
  9
$PINSBASE
 10
0.0
 20
0.0
 30
0.0
  9
$PLIMCHECK
 70
     0
  9
$PEXTMIN
 10
0.0
 20
0.0
 30
0.0
  9
$PEXTMAX
 10
1188.0
 20
840.0
 30
0.0
  9
$PLIMMIN
 10
0.0
 20
0.0
  9
$PLIMMAX
 10
1188.0
 20
840.0
  9
$UNITMODE
 70
     0
  9
$VISRETAIN
 70
     1
  9
$PLINEGEN
 70
     0
  9
$PSLTSCALE
 70
     1
  9
$TREEDEPTH
 70
  3020
  9
$CMLSTYLE
  2
Standard
  9
$CMLJUST
 70
     0
  9
$CMLSCALE
 40
1.0
  9
$PROXYGRAPHICS
 70
     1
  9
$MEASUREMENT
 70
     1
  9
$CELWEIGHT
370
    -1
  9
$ENDCAPS
280
     0
  9
$JOINSTYLE
280
     0
  9
$LWDISPLAY
290
     0
  9
$INSUNITS
 70
     4
  9
$HYPERLINKBASE
  1

  9
$STYLESHEET
  1

  9
$XEDIT
290
     1
  9
$CEPSNTYPE
380
     0
  9
$PSTYLEMODE
290
     1
  9
$FINGERPRINTGUID
  2
{46608B32-8F09-4E09-8C8D-79822A5A5135}
  9
$VERSIONGUID
  2
{0BAA4FE1-C31C-4257-855E-0C873BCB2594}
  9
$EXTNAMES
290
     1
  9
$PSVPSCALE
 40
0.0
  9
$OLESTARTUP
290
     0
  9
$SORTENTS
280
   127
  9
$INDEXCTL
280
     0
  9
$HIDETEXT
280
     1
  9
$XCLIPFRAME
290
     0
  9
$HALOGAP
280
     0
  9
$OBSCOLOR
 70
   257
  9
$OBSLTYPE
280
     0
  9
$INTERSECTIONDISPLAY
280
     0
  9
$INTERSECTIONCOLOR
 70
   257
  9
$DIMASSOC
280
     1
  9
$PROJECTNAME
  1

  9
$CAMERADISPLAY
290
     0
  9
$LENSLENGTH
 40
50.0
  9
$CAMERAHEIGHT
 40
0.0
  9
$STEPSPERSEC
 40
2.0
  9
$STEPSIZE
 40
6.0
  9
$3DDWFPREC
 40
2.0
  9
$PSOLWIDTH
 40
0.25
  9
$PSOLHEIGHT
 40
4.0
  9
$LOFTANG1
 40
1.570796326794896
  9
$LOFTANG2
 40
1.570796326794896
  9
$LOFTMAG1
 40
0.0
  9
$LOFTMAG2
 40
0.0
  9
$LOFTPARAM
 70
     7
  9
$LOFTNORMALS
280
     1
  9
$LATITUDE
 40
37.795
  9
$LONGITUDE
 40
-122.394
  9
$NORTHDIRECTION
 40
0.0
  9
$TIMEZONE
 70
 -8000
  9
$LIGHTGLYPHDISPLAY
280
     1
  9
$TILEMODELIGHTSYNCH
280
     1
  9
$CMATERIAL
347
11
  9
$SOLIDHIST
280
     1
  9
$SHOWHIST
280
     1
  9
$DWFFRAME
280
     2
  9
$DGNFRAME
280
     0
  9
$REALWORLDSCALE
290
     1
  9
$INTERFERECOLOR
 62
     1
  9
$INTERFEREOBJVS
345
33
  9
$INTERFEREVPVS
346
30
  9
$CSHADOW
280
     0
  9
$SHADOWPLANELOCATION
 40
0.0
  0
ENDSEC
  0
SECTION
  2
CLASSES
  0
CLASS
  1
ACDBDICTIONARYWDFLT
  2
AcDbDictionaryWithDefault
  3
ObjectDBX Classes
 90
        0
 91
        1
280
     0
281
     0
  0
CLASS
  1
MATERIAL
  2
AcDbMaterial
  3
ObjectDBX Classes
 90
     1153
 91
        3
280
     0
281
     0
  0
CLASS
  1
VISUALSTYLE
  2
AcDbVisualStyle
  3
ObjectDBX Classes
 90
     4095
 91
       16
280
     0
281
     0
  0
CLASS
  1
SCALE
  2
AcDbScale
  3
ObjectDBX Classes
 90
     1153
 91
       33
280
     0
281
     0
  0
CLASS
  1
TABLESTYLE
  2
AcDbTableStyle
  3
ObjectDBX Classes
 90
     4095
 91
        1
280
     0
281
     0
  0
CLASS
  1
MLEADERSTYLE
  2
AcDbMLeaderStyle
  3
ACDB_MLEADERSTYLE_CLASS
 90
     4095
 91
        1
280
     0
281
     0
  0
CLASS
  1
DICTIONARYVAR
  2
AcDbDictionaryVar
  3
ObjectDBX Classes
 90
        0
 91
        3
280
     0
281
     0
  0
CLASS
  1
CELLSTYLEMAP
  2
AcDbCellStyleMap
  3
ObjectDBX Classes
 90
     1152
 91
        1
280
     0
281
     0
  0
ENDSEC
  0
SECTION
  2
TABLES
  0
TABLE
  2
VPORT
  5
8
330
0
100
AcDbSymbolTable
 70
     1
  0
VPORT
  5
5F
330
8
100
AcDbSymbolTableRecord
100
AcDbViewportTableRecord
  2
*Active
 70
     0
 10
0.0
 20
0.0
 11
1.0
 21
1.0
 12
594.0
 22
420.0
 13
0.0
 23
0.0
 14
1.0
 24
1.0
 15
0.0
 25
0.0
 16
0.0
 26
0.0
 36
1.0
 17
0.0
 27
0.0
 37
0.0
 40
840.0
 41
1.414285714285714
 42
50.0
 43
0.0
 44
0.0
 50
0.0
 51
0.0
 71
     0
 72
   100
 73
     1
 74
     1
 75
     0
 76
     0
 77
     0
 78
     0
281
     0
 65
     1
110
0.0
120
0.0
130
0.0
111
1.0
121
0.0
131
0.0
112
0.0
122
1.0
132
0.0
 79
     0
146
0.0
 60
     3
 61
     5
292
     1
282
     1
141
0.0
142
0.0
 63
   250
421
  3355443
  0
ENDTAB
  0
TABLE
  2
LTYPE
  5
5
330
0
100
AcDbSymbolTable
 70
     1
  0
LTYPE
  5
63
330
5
100
AcDbSymbolTableRecord
100
AcDbLinetypeTableRecord
  2
ByBlock
 70
     0
  3

 72
    65
 73
     0
 40
0.0
  0
LTYPE
  5
64
330
5
100
AcDbSymbolTableRecord
100
AcDbLinetypeTableRecord
  2
ByLayer
 70
     0
  3

 72
    65
 73
     0
 40
0.0
  0
LTYPE
  5
65
330
5
100
AcDbSymbolTableRecord
100
AcDbLinetypeTableRecord
  2
Continuous
 70
     0
  3
Solid line
 72
    65
 73
     0
 40
0.0
  0
ENDTAB
  0
TABLE
  2
LAYER
  5
2
330
0
100
AcDbSymbolTable
 70
    25
  0
LAYER
  5
5C
330
2
100
AcDbSymbolTableRecord
100
AcDbLayerTableRecord
  2
0
 70
     0
 62
     7
  6
Continuous
370
    -3
390
F
347
21
  0
LAYER
  5
8C
330
2
100
AcDbSymbolTableRecord
100
AcDbLayerTableRecord
  2
Schraffur (ISO)
 70
     0
 62
     7
  6
Continuous
370
    18
390
F
347
21
  0
LAYER
  5
8D
330
2
100
AcDbSymbolTableRecord
100
AcDbLayerTableRecord
  2
Sichtbar (ISO)
 70
     0
 62
     7
  6
Continuous
370
    35
390
F
347
21
  0
LAYER
  5
8E
330
2
100
AcDbSymbolTableRecord
100
AcDbLayerTableRecord
  2
Sichtbar schmal (ISO)
 70
     0
 62
     7
  6
Continuous
370
    25
390
F
347
21
  0
LAYER
  5
8F
330
2
100
AcDbSymbolTableRecord
100
AcDbLayerTableRecord
  2
Skizziergeometrie (ISO)
 70
     0
 62
     7
  6
Continuous
370
    25
390
F
347
21
  0
LAYER
  5
90
330
2
100
AcDbSymbolTableRecord
100
AcDbLayerTableRecord
  2
Symbol (ISO)
 70
     0
 62
     7
  6
Continuous
370
    25
390
F
347
21
  0
LAYER
  5
91
330
2
100
AcDbSymbolTableRecord
100
AcDbLayerTableRecord
  2
Titel (ISO)
 70
     0
 62
     7
  6
Continuous
370
    50
390
F
347
21
  0
ENDTAB
  0
TABLE
  2
STYLE
  5
3
330
0
100
AcDbSymbolTable
 70
    24
  0
STYLE
  5
5D
330
3
100
AcDbSymbolTableRecord
100
AcDbTextStyleTableRecord
  2
Standard
 70
     0
 40
0.0
 41
1.0
 50
0.0
 71
     0
 42
0.2
  3
isocpeur.ttf
  4

1001
ACAD
1000
ISOCPEUR
1071
      256
  0
STYLE
  5
62
330
3
100
AcDbSymbolTableRecord
100
AcDbTextStyleTableRecord
  2
Annotative
 70
     0
 40
0.0
 41
1.0
 50
0.0
 71
     0
 42
0.2
  3
txt
  4

1001
AcadAnnotative
1000
AnnotativeData
1002
{
1070
     1
1070
     1
1002
}
  0
STYLE
  5
95
330
3
100
AcDbSymbolTableRecord
100
AcDbTextStyleTableRecord
  2
Alternativer Text (GOST)
 70
     0
 40
0.0
 41
0.8000000119209289
 50
0.0
 71
     0
 42
0.2
  3
ARIAL.TTF
  4

1001
ACAD
1000
Arial
1071
      256
  0
STYLE
  5
96
330
3
100
AcDbSymbolTableRecord
100
AcDbTextStyleTableRecord
  2
Bezeichnungstext (ANSI)
 70
     0
 40
0.0
 41
1.0
 50
0.0
 71
     0
 42
0.2
  3
TAHOMA.TTF
  4

1001
ACAD
1000
Tahoma
1071
      256
  0
STYLE
  5
97
330
3
100
AcDbSymbolTableRecord
100
AcDbTextStyleTableRecord
  2
Bezeichnungstext (DIN)
 70
     0
 40
0.0
 41
1.0
 50
0.0
 71
     0
 42
0.2
  3
isocpeur.ttf
  4

1001
ACAD
1000
ISOCPEUR
1071
      256
  0
STYLE
  5
98
330
3
100
AcDbSymbolTableRecord
100
AcDbTextStyleTableRecord
  2
Bezeichnungstext (ISO)
 70
     0
 40
0.0
 41
1.0
 50
0.0
 71
     0
 42
0.2
  3
TAHOMA.TTF
  4

1001
ACAD
1000
Tahoma
1071
      256
  0
STYLE
  5
99
330
3
100
AcDbSymbolTableRecord
100
AcDbTextStyleTableRecord
  2
Bezeichnungstext (JIS)
 70
     0
 40
0.0
 41
1.0
 50
0.0
 71
     0
 42
0.2
  3
TAHOMA.TTF
  4

1001
ACAD
1000
Tahoma
1071
      256
  0
STYLE
  5
9A
330
3
100
AcDbSymbolTableRecord
100
AcDbTextStyleTableRecord
  2
Normale Textgröße (GOST)
 70
     0
 40
0.0
 41
1.0
 50
0.0
 71
     0
 42
0.2
  3
GOST Common.ttf
  4

1001
ACAD
1000
GOST Common
1071
      256
  0
STYLE
  5
9B
330
3
100
AcDbSymbolTableRecord
100
AcDbTextStyleTableRecord
  2
Notiztext (ANSI)
 70
     0
 40
0.0
 41
1.0
 50
0.0
 71
     0
 42
0.2
  3
TAHOMA.TTF
  4

1001
ACAD
1000
Tahoma
1071
      256
  0
STYLE
  5
9C
330
3
100
AcDbSymbolTableRecord
100
AcDbTextStyleTableRecord
  2
Notiztext (DIN)
 70
     0
 40
0.0
 41
1.0
 50
0.0
 71
     0
 42
0.2
  3
isocpeur.ttf
  4

1001
ACAD
1000
ISOCPEUR
1071
      256
  0
STYLE
  5
9D
330
3
100
AcDbSymbolTableRecord
100
AcDbTextStyleTableRecord
  2
Notiztext (ISO)
 70
     0
 40
0.0
 41
1.0
 50
0.0
 71
     0
 42
0.2
  3
TAHOMA.TTF
  4

1001
ACAD
1000
Tahoma
1071
      256
  0
STYLE
  5
9E
330
3
100
AcDbSymbolTableRecord
100
AcDbTextStyleTableRecord
  2
Notiztext (JIS)
 70
     0
 40
0.0
 41
1.0
 50
0.0
 71
     0
 42
0.2
  3
TAHOMA.TTF
  4

1001
ACAD
1000
Tahoma
1071
      256
  0
STYLE
  5
9F
330
3
100
AcDbSymbolTableRecord
100
AcDbTextStyleTableRecord
  2
Notiztext_03.5
 70
     0
 40
0.0
 41
0.899999976158142
 50
0.0
 71
     0
 42
0.2
  3
ARIAL.TTF
  4

1001
ACAD
1000
Arial
1071
      256
  0
STYLE
  5
A0
330
3
100
AcDbSymbolTableRecord
100
AcDbTextStyleTableRecord
  2
Plan_Kopf_01.5
 70
     0
 40
0.0
 41
0.899999976158142
 50
0.0
 71
     0
 42
0.2
  3
ARIAL.TTF
  4

1001
ACAD
1000
Arial
1071
      256
  0
STYLE
  5
A1
330
3
100
AcDbSymbolTableRecord
100
AcDbTextStyleTableRecord
  2
Plan_Kopf_02.0
 70
     0
 40
0.0
 41
0.899999976158142
 50
0.0
 71
     0
 42
0.2
  3
ARIAL.TTF
  4

1001
ACAD
1000
Arial
1071
      256
  0
STYLE
  5
A2
330
3
100
AcDbSymbolTableRecord
100
AcDbTextStyleTableRecord
  2
Plan_Kopf_02.5
 70
     0
 40
0.0
 41
0.899999976158142
 50
0.0
 71
     0
 42
0.2
  3
ARIAL.TTF
  4

1001
ACAD
1000
Arial
1071
      256
  0
STYLE
  5
A3
330
3
100
AcDbSymbolTableRecord
100
AcDbTextStyleTableRecord
  2
Plan_Kopf_03.5
 70
     0
 40
0.0
 41
0.899999976158142
 50
0.0
 71
     0
 42
0.2
  3
ARIAL.TTF
  4

1001
ACAD
1000
Arial
1071
      256
  0
STYLE
  5
A4
330
3
100
AcDbSymbolTableRecord
100
AcDbTextStyleTableRecord
  2
Plan_Kopf_05.0
 70
     0
 40
0.0
 41
0.899999976158142
 50
0.0
 71
     0
 42
0.2
  3
ARIAL.TTF
  4

1001
ACAD
1000
Arial
1071
      256
  0
STYLE
  5
A5
330
3
100
AcDbSymbolTableRecord
100
AcDbTextStyleTableRecord
  2
Stückliste
 70
     0
 40
0.0
 41
0.899999976158142
 50
0.0
 71
     0
 42
0.2
  3
isocpeur.ttf
  4

1001
ACAD
1000
ISOCPEUR
1071
      256
  0
STYLE
  5
A6
330
3
100
AcDbSymbolTableRecord
100
AcDbTextStyleTableRecord
  2
TolListe_12
 70
     0
 40
0.0
 41
1.0
 50
0.0
 71
     0
 42
0.2
  3
isocpeur.ttf
  4

1001
ACAD
1000
ISOCPEUR
1071
      256
  0
STYLE
  5
A7
330
3
100
AcDbSymbolTableRecord
100
AcDbTextStyleTableRecord
  2
Vergrößerter Text (GOST)
 70
     0
 40
0.0
 41
1.0
 50
0.0
 71
     0
 42
0.2
  3
GOST Common.ttf
  4

1001
ACAD
1000
GOST Common
1071
      256
  0
STYLE
  5
A8
330
3
100
AcDbSymbolTableRecord
100
AcDbTextStyleTableRecord
  2
Verkleinerter Text (GOST)
 70
     0
 40
0.0
 41
0.8000000119209289
 50
0.0
 71
     0
 42
0.2
  3
GOST Common.ttf
  4

1001
ACAD
1000
GOST Common
1071
      256
  0
STYLE
  5
10B
330
3
100
AcDbSymbolTableRecord
100
AcDbTextStyleTableRecord
  2
TolListe_12-AIGDT
 70
     0
 40
0.0
 41
1.0
 50
0.0
 71
     0
 42
0.2
  3
AIGDT___.TTF
  4

1001
ACAD
1000
AIGDT
1071
      514
  0
STYLE
  5
164
330
3
100
AcDbSymbolTableRecord
100
AcDbTextStyleTableRecord
  2
TolListe_12-Arial
 70
     0
 40
0.0
 41
1.100000023841857
 50
0.0
 71
     0
 42
0.2
  3

  4

1001
ACAD
1000
Arial
1071
-33554176
  0
ENDTAB
  0
TABLE
  2
VIEW
  5
6
330
0
100
AcDbSymbolTable
 70
     0
  0
ENDTAB
  0
TABLE
  2
UCS
  5
7
330
0
100
AcDbSymbolTable
 70
     0
  0
ENDTAB
  0
TABLE
  2
APPID
  5
9
330
0
100
AcDbSymbolTable
 70
     4
  0
APPID
  5
5E
330
9
100
AcDbSymbolTableRecord
100
AcDbRegAppTableRecord
  2
ACAD
 70
     0
  0
APPID
  5
66
330
9
100
AcDbSymbolTableRecord
100
AcDbRegAppTableRecord
  2
AcadAnnotative
 70
     0
  0
APPID
  5
70
330
9
100
AcDbSymbolTableRecord
100
AcDbRegAppTableRecord
  2
ACAD_MLEADERVER
 70
     0
  0
APPID
  5
16A
330
9
100
AcDbSymbolTableRecord
100
AcDbRegAppTableRecord
  2
AcadAnnoPO
 70
     0
  0
ENDTAB
  0
TABLE
  2
DIMSTYLE
  5
A
330
0
100
AcDbSymbolTable
 70
    12
100
AcDbDimStyleTable
 71
     0
  0
DIMSTYLE
105
60
330
A
100
AcDbSymbolTableRecord
100
AcDbDimStyleTableRecord
  2
Standard
 70
     0
340
5D
  0
DIMSTYLE
105
61
330
A
100
AcDbSymbolTableRecord
100
AcDbDimStyleTableRecord
  2
Annotative
 70
     0
340
5D
1001
AcadAnnotative
1000
AnnotativeData
1002
{
1070
     1
1070
     1
1002
}
  0
DIMSTYLE
105
B7
330
A
100
AcDbSymbolTableRecord
100
AcDbDimStyleTableRecord
  2
Sonstiges Objekt (DIN)
 70
     0
 40
2.0
 41
5.0
 42
0.0
 43
5.999999999999999
 44
3.174999999999999
 45
0.00000001
 46
10.0
 77
     1
 78
     8
 79
     2
140
5.25
143
0.03937
146
0.6666666666666666
147
0.8
171
     3
172
     1
176
   256
177
   256
178
   256
271
     2
272
     2
274
     3
278
    44
284
     8
286
     8
340
97
341
A9
371
    -1
372
    -1
  0
DIMSTYLE
105
B8
330
A
100
AcDbSymbolTableRecord
100
AcDbDimStyleTableRecord
  2
Sonstiges Objekt (DIN)$7
 70
     0
 40
2.0
 41
5.0
 42
0.0
 43
5.999999999999999
 44
3.174999999999999
 45
0.00000001
 46
10.0
 77
     1
 78
     8
 79
     2
140
5.25
143
0.03937
146
0.6666666666666666
147
0.8
171
     3
172
     1
176
   256
177
   256
178
   256
271
     2
272
     2
274
     3
278
    44
284
     8
286
     8
340
97
341
A9
371
    25
372
    -1
  0
DIMSTYLE
105
B9
330
A
100
AcDbSymbolTableRecord
100
AcDbDimStyleTableRecord
  2
Standard - Methode 2a (DIN)
 70
     0
 40
2.0
 41
2.5
 42
0.8
 43
5.999999999999999
 44
3.174999999999999
 45
0.00000001
 46
10.0
 77
     1
 78
     8
 79
     2
140
3.5
143
0.03937
147
0.8
170
     1
171
     3
172
     1
176
   256
177
   256
178
   256
179
     2
271
     2
272
     2
274
     3
278
    44
284
     8
286
     8
340
9C
371
    -1
372
    -1
  0
DIMSTYLE
105
BA
330
A
100
AcDbSymbolTableRecord
100
AcDbDimStyleTableRecord
  2
Standard - Methode 2a (DIN)$7
 70
     0
 40
2.0
 41
2.5
 42
0.8
 43
5.999999999999999
 44
3.174999999999999
 45
0.00000001
 46
10.0
 77
     1
 78
     8
 79
     2
140
3.5
143
0.03937
147
0.8
170
     1
171
     3
172
     1
176
   256
177
   256
178
   256
179
     2
271
     2
272
     2
274
     3
278
    44
284
     8
286
     8
340
9C
371
    -1
372
    -1
  0
DIMSTYLE
105
BB
330
A
100
AcDbSymbolTableRecord
100
AcDbDimStyleTableRecord
  2
Standard - Methode 2b (DIN)
 70
     0
 40
2.0
 41
2.5
 42
0.0
 43
5.999999999999999
 44
3.174999999999999
 45
0.00000001
 46
10.0
 77
     1
 78
     8
 79
     2
140
3.5
143
0.03937
147
0.8
171
     3
172
     1
176
   256
177
   256
178
   256
271
     2
272
     2
274
     3
278
    44
284
     8
286
     8
340
9C
371
    -1
372
    -1
  0
DIMSTYLE
105
BC
330
A
100
AcDbSymbolTableRecord
100
AcDbDimStyleTableRecord
  2
Standard - Methode 2b (DIN)$7
 70
     0
 40
2.0
 41
2.5
 42
0.0
 43
5.999999999999999
 44
3.174999999999999
 45
0.00000001
 46
10.0
 77
     1
 78
     8
 79
     2
140
3.5
143
0.03937
147
0.8
171
     3
172
     1
176
   256
177
   256
178
   256
271
     2
272
     2
274
     3
278
    44
284
     8
286
     8
340
9C
371
    -1
372
    -1
  0
DIMSTYLE
105
BD
330
A
100
AcDbSymbolTableRecord
100
AcDbDimStyleTableRecord
  2
Standard (DIN)
 70
     0
 40
2.0
 41
2.5
 42
0.8
 43
5.999999999999999
 44
3.174999999999999
 45
0.00000001
 46
10.0
 73
     0
 74
     0
 77
     1
 78
     8
 79
     2
140
3.5
143
0.03937
147
0.8
171
     3
172
     1
176
   256
177
   256
178
   256
271
     2
272
     3
274
     3
278
    44
340
9C
371
    -1
372
    -1
  0
DIMSTYLE
105
BE
330
A
100
AcDbSymbolTableRecord
100
AcDbDimStyleTableRecord
  2
Standard (DIN)$7
 70
     0
 40
2.0
 41
2.5
 42
0.8
 43
5.999999999999999
 44
3.174999999999999
 45
0.00000001
 46
10.0
 73
     0
 74
     0
 77
     1
 78
     8
 79
     2
140
3.5
143
0.03937
147
0.8
171
     3
172
     1
176
   256
177
   256
178
   256
271
     2
272
     3
274
     3
278
    44
340
9C
371
    -1
372
    -1
  0
DIMSTYLE
105
BF
330
A
100
AcDbSymbolTableRecord
100
AcDbDimStyleTableRecord
  2
Alternativ (ISO)
 70
     0
 40
2.0
 41
2.5
340
5D
342
C0
  0
DIMSTYLE
105
D1
330
A
100
AcDbSymbolTableRecord
100
AcDbDimStyleTableRecord
  2
Bezug (ISO)
 70
     0
 40
2.0
 41
2.5
340
5D
342
C0
  0
ENDTAB
  0
TABLE
  2
BLOCK_RECORD
  5
1
330
0
100
AcDbSymbolTable
 70
     8
  0
BLOCK_RECORD
  5
75
330
1
100
AcDbSymbolTableRecord
100
AcDbBlockTableRecord
  2
*Model_Space
340
78
 70
     0
280
     1
281
     0
  0
BLOCK_RECORD
  5
71
330
1
100
AcDbSymbolTableRecord
100
AcDbBlockTableRecord
  2
*Paper_Space
340
74
 70
     0
280
     1
281
     0
  0
BLOCK_RECORD
  5
79
330
1
100
AcDbSymbolTableRecord
100
AcDbBlockTableRecord
  2
*Paper_Space0
340
7C
 70
     0
280
     1
281
     0
  0
BLOCK_RECORD
  5
A9
330
1
100
AcDbSymbolTableRecord
100
AcDbBlockTableRecord
  2
Filled-1
340
0
 70
     0
280
     1
281
     0
  0
BLOCK_RECORD
  5
C0
330
1
100
AcDbSymbolTableRecord
100
AcDbBlockTableRecord
  2
_Closed
340
0
 70
     0
280
     1
281
     0
  0
BLOCK_RECORD
  5
C7
330
1
100
AcDbSymbolTableRecord
100
AcDbBlockTableRecord
  2
DatumFilled45
340
0
 70
     0
280
     1
281
     0
  0
BLOCK_RECORD
  5
D2
330
1
100
AcDbSymbolTableRecord
100
AcDbBlockTableRecord
  2
Tolleranz Liste
340
0
 70
     0
280
     1
281
     0
  0
BLOCK_RECORD
  5
16D
330
1
100
AcDbSymbolTableRecord
100
AcDbBlockTableRecord
  2
ProtoTyp
340
0
 70
     0
280
     1
281
     0
  0
BLOCK_RECORD
  5
172
330
1
100
AcDbSymbolTableRecord
100
AcDbBlockTableRecord
  2
Logo
340
0
 70
     0
280
     1
281
     0
  0
BLOCK_RECORD
  5
1EF
330
1
100
AcDbSymbolTableRecord
100
AcDbBlockTableRecord
  2
P gross
340
0
 70
     0
280
     1
281
     0
  0
ENDTAB
  0
ENDSEC
  0
SECTION
  2
BLOCKS
  0
BLOCK
  5
76
330
75
100
AcDbEntity
  8
0
100
AcDbBlockBegin
  2
*Model_Space
 70
     0
 10
0.0
 20
0.0
 30
0.0
  3
*Model_Space
  1

  0
ENDBLK
  5
77
330
75
100
AcDbEntity
  8
0
100
AcDbBlockEnd
  0
BLOCK
  5
72
330
71
100
AcDbEntity
 67
     1
  8
0
100
AcDbBlockBegin
  2
*Paper_Space
 70
     0
 10
0.0
 20
0.0
 30
0.0
  3
*Paper_Space
  1

  0
ENDBLK
  5
73
330
71
100
AcDbEntity
 67
     1
  8
0
100
AcDbBlockEnd
  0
BLOCK
  5
7A
330
79
100
AcDbEntity
 67
     1
  8
0
100
AcDbBlockBegin
  2
*Paper_Space0
 70
     0
 10
0.0
 20
0.0
 30
0.0
  3
*Paper_Space0
  1

  0
ENDBLK
  5
7B
330
79
100
AcDbEntity
 67
     1
  8
0
100
AcDbBlockEnd
  0
BLOCK
  5
AA
330
A9
100
AcDbEntity
  8
0
100
AcDbBlockBegin
  2
Filled-1
 70
     0
 10
0.0
 20
0.0
 30
0.0
  3
Filled-1
  1

  0
LINE
  5
AC
330
A9
100
AcDbEntity
  8
0
 62
     0
100
AcDbLine
 10
-1.0
 20
0.0
 30
0.0
 11
0.0
 21
0.0
 31
0.0
  0
POLYLINE
  5
AD
330
A9
100
AcDbEntity
  8
0
 62
     0
100
AcDb2dPolyline
 66
     1
 10
0.0
 20
0.0
 30
0.0
 70
   128
  0
VERTEX
  5
AE
330
AD
100
AcDbEntity
  8
0
 62
     0
100
AcDbVertex
100
AcDb2dVertex
 10
-1.0
 20
-0.1
 30
0.0
  0
VERTEX
  5
AF
330
AD
100
AcDbEntity
  8
0
 62
     0
100
AcDbVertex
100
AcDb2dVertex
 10
0.0
 20
0.0
 30
0.0
  0
VERTEX
  5
B1
330
AD
100
AcDbEntity
  8
0
 62
     0
100
AcDbVertex
100
AcDb2dVertex
 10
-1.0
 20
0.1
 30
0.0
  0
VERTEX
  5
B2
330
AD
100
AcDbEntity
  8
0
 62
     0
100
AcDbVertex
100
AcDb2dVertex
 10
-1.0
 20
-0.1
 30
0.0
  0
SEQEND
  5
B0
330
AD
100
AcDbEntity
  8
0
 62
     0
  0
SOLID
  5
B3
330
A9
100
AcDbEntity
  8
0
 62
     0
100
AcDbTrace
 10
-1.0
 20
-0.1
 30
0.0
 11
0.0
 21
0.0
 31
0.0
 12
-1.0
 22
0.1
 32
0.0
 13
-1.0
 23
-0.1
 33
0.0
  0
LINE
  5
B4
330
A9
100
AcDbEntity
  8
0
 62
     0
100
AcDbLine
 10
-1.0
 20
-0.1
 30
0.0
 11
0.0
 21
0.0
 31
0.0
  0
LINE
  5
B5
330
A9
100
AcDbEntity
  8
0
 62
     0
100
AcDbLine
 10
0.0
 20
0.0
 30
0.0
 11
-1.0
 21
0.1
 31
0.0
  0
LINE
  5
B6
330
A9
100
AcDbEntity
  8
0
 62
     0
100
AcDbLine
 10
-1.0
 20
0.1
 30
0.0
 11
-1.0
 21
-0.1
 31
0.0
  0
ENDBLK
  5
AB
330
A9
100
AcDbEntity
  8
0
100
AcDbBlockEnd
  0
BLOCK
  5
C5
330
C0
100
AcDbEntity
  8
0
100
AcDbBlockBegin
  2
_Closed
 70
     0
 10
0.0
 20
0.0
 30
0.0
  3
_Closed
  1

  0
LINE
  5
C1
330
C0
100
AcDbEntity
  8
0
  6
ByBlock
 62
     0
370
    -2
100
AcDbLine
 10
-1.0
 20
0.1666666666666666
 30
0.0
 11
0.0
 21
0.0
 31
0.0
  0
LINE
  5
C2
330
C0
100
AcDbEntity
  8
0
  6
ByBlock
 62
     0
370
    -2
100
AcDbLine
 10
0.0
 20
0.0
 30
0.0
 11
-1.0
 21
-0.1666666666666666
 31
0.0
  0
LINE
  5
C3
330
C0
100
AcDbEntity
  8
0
  6
ByBlock
 62
     0
370
    -2
100
AcDbLine
 10
-1.0
 20
0.1666666666666666
 30
0.0
 11
-1.0
 21
-0.1666666666666666
 31
0.0
  0
LINE
  5
C4
330
C0
100
AcDbEntity
  8
0
  6
ByBlock
 62
     0
370
    -2
100
AcDbLine
 10
0.0
 20
0.0
 30
0.0
 11
-1.0
 21
0.0
 31
0.0
  0
ENDBLK
  5
C6
330
C0
100
AcDbEntity
  8
0
100
AcDbBlockEnd
  0
BLOCK
  5
C8
330
C7
100
AcDbEntity
  8
0
100
AcDbBlockBegin
  2
DatumFilled45
 70
     0
 10
0.0
 20
0.0
 30
0.0
  3
DatumFilled45
  1

  0
POLYLINE
  5
CA
330
C7
100
AcDbEntity
  8
0
 62
     0
100
AcDb2dPolyline
 66
     1
 10
0.0
 20
0.0
 30
0.0
 70
   128
  0
VERTEX
  5
CB
330
CA
100
AcDbEntity
  8
0
 62
     0
100
AcDbVertex
100
AcDb2dVertex
 10
0.0
 20
1.0
 30
0.0
  0
VERTEX
  5
CC
330
CA
100
AcDbEntity
  8
0
 62
     0
100
AcDbVertex
100
AcDb2dVertex
 10
0.0
 20
-1.0
 30
0.0
  0
VERTEX
  5
CE
330
CA
100
AcDbEntity
  8
0
 62
     0
100
AcDbVertex
100
AcDb2dVertex
 10
-1.0
 20
0.0
 30
0.0
  0
VERTEX
  5
CF
330
CA
100
AcDbEntity
  8
0
 62
     0
100
AcDbVertex
100
AcDb2dVertex
 10
0.0
 20
1.0
 30
0.0
  0
SEQEND
  5
CD
330
CA
100
AcDbEntity
  8
0
 62
     0
  0
SOLID
  5
D0
330
C7
100
AcDbEntity
  8
0
 62
     0
100
AcDbTrace
 10
0.0
 20
1.0
 30
0.0
 11
0.0
 21
-1.0
 31
0.0
 12
-1.0
 22
0.0
 32
0.0
 13
0.0
 23
1.0
 33
0.0
  0
ENDBLK
  5
C9
330
C7
100
AcDbEntity
  8
0
100
AcDbBlockEnd
  0
BLOCK
  5
D3
330
D2
100
AcDbEntity
  8
0
100
AcDbBlockBegin
  2
Tolleranz Liste
 70
     2
 10
0.0
 20
0.0
 30
0.0
  3
Tolleranz Liste
  1

  0
LINE
  5
D5
330
D2
100
AcDbEntity
  8
Titel (ISO)
 62
     7
100
AcDbLine
 10
-190.0
 20
0.0
 30
0.0
 11
0.0
 21
0.0
 31
0.0
  0
LINE
  5
D6
330
D2
100
AcDbEntity
  8
Titel (ISO)
 62
     7
370
    18
100
AcDbLine
 10
-190.0
 20
2.999999999999989
 30
0.0
 11
0.0
 21
2.999999999999989
 31
0.0
  0
LINE
  5
D7
330
D2
100
AcDbEntity
  8
Titel (ISO)
 62
     7
370
    18
100
AcDbLine
 10
-190.0
 20
5.999999999999978
 30
0.0
 11
0.0
 21
5.999999999999978
 31
0.0
  0
LINE
  5
D8
330
D2
100
AcDbEntity
  8
Titel (ISO)
 62
     7
370
    18
100
AcDbLine
 10
-190.0
 20
8.999999999999968
 30
0.0
 11
0.0
 21
8.999999999999968
 31
0.0
  0
LINE
  5
D9
330
D2
100
AcDbEntity
  8
Titel (ISO)
 62
     7
100
AcDbLine
 10
-190.0
 20
18.99999999999996
 30
0.0
 11
0.0
 21
18.99999999999996
 31
0.0
  0
LINE
  5
DA
330
D2
100
AcDbEntity
  8
Titel (ISO)
 62
     7
370
    18
100
AcDbLine
 10
-130.861111
 20
13.7701170573068
 30
0.0
 11
-130.861111
 21
0.0
 31
0.0
  0
LINE
  5
DB
330
D2
100
AcDbEntity
  8
Titel (ISO)
 62
     7
370
    18
100
AcDbLine
 10
-162.972222
 20
13.7701170573068
 30
0.0
 11
-162.972222
 21
0.0
 31
0.0
  0
LINE
  5
DC
330
D2
100
AcDbEntity
  8
Titel (ISO)
 62
     7
370
    18
100
AcDbLine
 10
-154.944444
 20
13.7701170573068
 30
0.0
 11
-154.944444
 21
0.0
 31
0.0
  0
LINE
  5
DD
330
D2
100
AcDbEntity
  8
Titel (ISO)
 62
     7
370
    18
100
AcDbLine
 10
-146.916667
 20
13.7701170573068
 30
0.0
 11
-146.916667
 21
0.0
 31
0.0
  0
LINE
  5
DE
330
D2
100
AcDbEntity
  8
Titel (ISO)
 62
     7
370
    18
100
AcDbLine
 10
-138.888889
 20
13.7701170573068
 30
0.0
 11
-138.888889
 21
0.0
 31
0.0
  0
LINE
  5
DF
330
D2
100
AcDbEntity
  8
Titel (ISO)
 62
     7
370
    18
100
AcDbLine
 10
-183.25
 20
9.070117057306816
 30
0.0
 11
-183.25
 21
0.0
 31
0.0
  0
LINE
  5
E0
330
D2
100
AcDbEntity
  8
Titel (ISO)
 62
     7
100
AcDbLine
 10
-190.0
 20
18.99999999999996
 30
0.0
 11
-190.0
 21
0.0
 31
0.0
  0
LINE
  5
E1
330
D2
100
AcDbEntity
  8
Titel (ISO)
 62
     7
100
AcDbLine
 10
-171.0
 20
18.99999999999996
 30
0.0
 11
-171.0
 21
0.0
 31
0.0
  0
LINE
  5
E2
330
D2
100
AcDbEntity
  8
Titel (ISO)
 62
     7
370
    18
100
AcDbLine
 10
-190.0
 20
11.99999999999997
 30
0.0
 11
-171.0
 21
11.99999999999995
 31
0.0
  0
LINE
  5
E3
330
D2
100
AcDbEntity
  8
Titel (ISO)
  6
Continuous
 62
     7
370
    25
100
AcDbLine
 10
-105.0
 20
7.570117057306813
 30
0.0
 11
-103.5
 21
7.570117057306813
 31
0.0
  0
LINE
  5
E4
330
D2
100
AcDbEntity
  8
Titel (ISO)
  6
Continuous
 62
     7
370
    25
100
AcDbLine
 10
-112.5
 20
7.570117057306813
 30
0.0
 11
-111.0
 21
7.570117057306813
 31
0.0
  0
LINE
  5
E5
330
D2
100
AcDbEntity
  8
Titel (ISO)
 62
     7
370
    18
100
AcDbLine
 10
-122.833333
 20
13.7701170573068
 30
0.0
 11
-122.833333
 21
0.0
 31
0.0
  0
LINE
  5
E6
330
D2
100
AcDbEntity
  8
Titel (ISO)
 62
     7
370
    18
100
AcDbLine
 10
-114.805556
 20
13.7701170573068
 30
0.0
 11
-114.805556
 21
0.0
 31
0.0
  0
LINE
  5
E7
330
D2
100
AcDbEntity
  8
Titel (ISO)
 62
     7
370
    18
100
AcDbLine
 10
-106.777778
 20
13.7701170573068
 30
0.0
 11
-106.777778
 21
0.0
 31
0.0
  0
LINE
  5
E8
330
D2
100
AcDbEntity
  8
Titel (ISO)
 62
     7
100
AcDbLine
 10
-99.25000000000004
 20
18.99999999999996
 30
0.0
 11
-99.25000000000004
 21
0.0
 31
0.0
  0
LINE
  5
E9
330
D2
100
AcDbEntity
  8
Titel (ISO)
 62
     7
370
    18
100
AcDbLine
 10
-95.75000000000002
 20
6.070117057306809
 30
0.0
 11
-95.75000000000002
 21
0.0
 31
0.0
  0
LINE
  5
EA
330
D2
100
AcDbEntity
  8
Titel (ISO)
 62
     7
370
    18
100
AcDbLine
 10
-50.75000000000002
 20
6.070117057306809
 30
0.0
 11
-50.75000000000002
 21
0.0
 31
0.0
  0
LINE
  5
EB
330
D2
100
AcDbEntity
  8
Titel (ISO)
 62
     7
370
    18
100
AcDbLine
 10
-60.25000000000002
 20
6.070117057306809
 30
0.0
 11
-60.25000000000002
 21
0.0
 31
0.0
  0
LINE
  5
EC
330
D2
100
AcDbEntity
  8
Titel (ISO)
 62
     7
370
    18
100
AcDbLine
 10
-69.75000000000001
 20
13.7701170573068
 30
0.0
 11
-69.75000000000001
 21
9.070117057306816
 31
0.0
  0
LINE
  5
ED
330
D2
100
AcDbEntity
  8
Titel (ISO)
 62
     7
370
    18
100
AcDbLine
 10
-60.25000000000002
 20
13.7701170573068
 30
0.0
 11
-60.25000000000002
 21
9.070117057306816
 31
0.0
  0
LINE
  5
EE
330
D2
100
AcDbEntity
  8
Titel (ISO)
 62
     7
370
    18
100
AcDbLine
 10
-50.75000000000002
 20
13.7701170573068
 30
0.0
 11
-50.75000000000002
 21
9.070117057306816
 31
0.0
  0
LINE
  5
EF
330
D2
100
AcDbEntity
  8
Titel (ISO)
 62
     7
370
    18
100
AcDbLine
 10
-30.93750000000003
 20
13.7701170573068
 30
0.0
 11
-30.93750000000003
 21
9.070117057306816
 31
0.0
  0
LINE
  5
F0
330
D2
100
AcDbEntity
  8
Titel (ISO)
 62
     7
370
    18
100
AcDbLine
 10
-20.88650000000005
 20
6.070117057306809
 30
0.0
 11
-20.88650000000005
 21
0.0
 31
0.0
  0
LINE
  5
F1
330
D2
100
AcDbEntity
  8
Titel (ISO)
 62
     7
370
    18
100
AcDbLine
 10
-20.88650000000005
 20
13.7701170573068
 30
0.0
 11
-20.88650000000005
 21
9.070117057306816
 31
0.0
  0
LINE
  5
F2
330
D2
100
AcDbEntity
  8
Titel (ISO)
 62
     7
370
    18
100
AcDbLine
 10
-10.31250000000003
 20
13.7701170573068
 30
0.0
 11
-10.31250000000003
 21
9.070117057306816
 31
0.0
  0
LINE
  5
F3
330
D2
100
AcDbEntity
  8
Titel (ISO)
 62
     7
370
    18
100
AcDbLine
 10
-10.31250000000003
 20
6.070117057306809
 30
0.0
 11
-10.31250000000003
 21
0.0
 31
0.0
  0
LINE
  5
F4
330
D2
100
AcDbEntity
  8
Titel (ISO)
 62
     7
370
    18
100
AcDbLine
 10
-30.93750000000003
 20
6.070117057306809
 30
0.0
 11
-30.93750000000003
 21
0.0
 31
0.0
  0
LINE
  5
F5
330
D2
100
AcDbEntity
  8
Titel (ISO)
 62
     7
100
AcDbLine
 10
0.0
 20
0.0
 30
0.0
 11
0.0
 21
18.99999999999996
 31
0.0
  0
LINE
  5
F6
330
D2
100
AcDbEntity
  8
Titel (ISO)
 62
     7
370
    18
100
AcDbLine
 10
-69.75000000000001
 20
6.070117057306809
 30
0.0
 11
-69.75000000000001
 21
0.0
 31
0.0
  0
LINE
  5
F7
330
D2
100
AcDbEntity
  8
Titel (ISO)
 62
     7
100
AcDbLine
 10
-79.25000000000003
 20
18.99999999999996
 30
0.0
 11
-79.25000000000003
 21
0.0
 31
0.0
  0
LINE
  5
F8
330
D2
100
AcDbEntity
  8
Titel (ISO)
370
    18
100
AcDbLine
 10
-40.98894210789946
 20
8.999999999999968
 30
0.0
 11
-40.98894210789946
 21
13.7701170573068
 31
0.0
  0
LINE
  5
F9
330
D2
100
AcDbEntity
  8
Titel (ISO)
370
    18
100
AcDbLine
 10
-40.81485039283569
 20
5.999999999999978
 30
0.0
 11
-40.81485039283569
 21
0.0
 31
0.0
  0
SPLINE
  5
FA
330
D2
100
AcDbEntity
  8
Titel (ISO)
 62
     7
370
    18
100
AcDbSpline
210
0.0
220
0.0
230
1.0
 70
     8
 71
     4
 72
    15
 73
    10
 74
     0
 42
0.0000000001
 43
0.0000000001
 40
0.0
 40
0.0
 40
0.0
 40
0.0
 40
0.0
 40
0.2448862522902173
 40
0.372542829838283
 40
0.537712414826782
 40
0.6892572885860062
 40
0.7957086571447725
 40
1.0
 40
1.0
 40
1.0
 40
1.0
 40
1.0
 10
-66.28694873925519
 20
7.64651126040853
 30
0.0
 10
-66.28992133139053
 20
7.684326472464615
 30
0.0
 10
-66.30278798934259
 20
7.801058419170612
 30
0.0
 10
-66.54106167347689
 20
7.859647761643628
 30
0.0
 10
-66.76118299621641
 20
7.833028120844396
 30
0.0
 10
-66.95021102053759
 20
7.740235927209404
 30
0.0
 10
-66.9202360191262
 20
7.49058708009608
 30
0.0
 10
-66.82199748484567
 20
7.453245599066988
 30
0.0
 10
-66.75742436020357
 20
7.442433905354555
 30
0.0
 10
-66.71777189204616
 20
7.426104053762667
 30
0.0
  0
LINE
  5
FB
330
D2
100
AcDbEntity
  8
0
100
AcDbLine
 10
-66.26659572485762
 20
7.671004611388436
 30
0.0
 11
-66.37244477211755
 21
7.81624801356239
 31
0.0
  0
ARC
  5
FC
330
D2
100
AcDbEntity
  8
0
100
AcDbCircle
 10
-66.45038101106777
 20
7.648258902765228
 30
0.0
 40
0.1619243095334992
100
AcDbArc
 50
12.14398738960057
 51
60.02290540986514
  0
LINE
  5
FD
330
D2
100
AcDbEntity
  8
0
100
AcDbLine
 10
-66.89670837859369
 20
7.487238148935002
 30
0.0
 11
-66.71468159031151
 21
7.422119968654339
 31
0.0
  0
ARC
  5
FE
330
D2
100
AcDbEntity
  8
0
100
AcDbCircle
 10
-66.6890673438411
 20
7.78069177527314
 30
0.0
 40
0.3462460077174544
100
AcDbArc
 50
237.7261995458496
 51
262.9055232599758
  0
SPLINE
  5
FF
330
D2
100
AcDbEntity
  8
Titel (ISO)
 62
     7
370
    18
100
AcDbSpline
210
0.0
220
0.0
230
1.0
 70
     8
 71
     4
 72
    12
 73
     7
 74
     0
 42
0.0000000001
 43
0.0000000001
 40
0.0
 40
0.0
 40
0.0
 40
0.0
 40
0.0
 40
0.3933269697832906
 40
0.5579414211012799
 40
1.0
 40
1.0
 40
1.0
 40
1.0
 40
1.0
 10
-66.7177718920461
 20
7.426104053762667
 30
0.0
 10
-66.94102867992272
 20
7.36506224211622
 30
0.0
 10
-66.95038095686311
 20
7.40547820884279
 30
0.0
 10
-67.03925767066545
 20
6.865044071034649
 30
0.0
 10
-66.44367713306704
 20
6.956885902430158
 30
0.0
 10
-66.3418945025619
 20
7.013553608348583
 30
0.0
 10
-66.25537378160072
 20
7.154138853519782
 30
0.0
  0
SPLINE
  5
100
330
D2
100
AcDbEntity
  8
Titel (ISO)
 62
     7
370
    18
100
AcDbSpline
210
0.0
220
0.0
230
1.0
 70
     8
 71
     4
 72
    12
 73
     7
 74
     0
 42
0.0000000001
 43
0.0000000001
 40
0.0
 40
0.0
 40
0.0
 40
0.0
 40
0.0
 40
0.3872212693569691
 40
0.5575199507602742
 40
1.0
 40
1.0
 40
1.0
 40
1.0
 40
1.0
 10
-23.59108108251476
 20
7.528905781183539
 30
0.0
 10
-23.70063657153558
 20
7.500278841709757
 30
0.0
 10
-23.87007003961081
 20
7.495055014400904
 30
0.0
 10
-23.87709660835664
 20
6.981211874419681
 30
0.0
 10
-23.33833653350904
 20
7.052090909862052
 30
0.0
 10
-23.20493964281642
 20
7.119913147019296
 30
0.0
 10
-23.12868297206911
 20
7.256940580940742
 30
0.0
  0
SPLINE
  5
101
330
D2
100
AcDbEntity
  8
Titel (ISO)
 62
     7
370
    18
100
AcDbSpline
210
0.0
220
0.0
230
1.0
 70
     8
 71
     4
 72
    15
 73
    10
 74
     0
 42
0.0000000001
 43
0.0000000001
 40
0.0
 40
0.0
 40
0.0
 40
0.0
 40
0.0
 40
0.2448862522902173
 40
0.372542829838283
 40
0.537712414826782
 40
0.6892572885860062
 40
0.7957086571447725
 40
1.0
 40
1.0
 40
1.0
 40
1.0
 40
1.0
 10
-23.16025792972365
 20
7.74931298782949
 30
0.0
 10
-23.16323052185901
 20
7.787128199885575
 30
0.0
 10
-23.17609717981107
 20
7.903860146591572
 30
0.0
 10
-23.41437086394535
 20
7.962449489064589
 30
0.0
 10
-23.63449218668485
 20
7.935829848265356
 30
0.0
 10
-23.82352021100605
 20
7.843037654630364
 30
0.0
 10
-23.79354520959467
 20
7.59338880751704
 30
0.0
 10
-23.69530667531414
 20
7.556047326487949
 30
0.0
 10
-23.630733550672
 20
7.545235632775515
 30
0.0
 10
-23.59108108251462
 20
7.528905781183627
 30
0.0
  0
LINE
  5
102
330
D2
100
AcDbEntity
  8
Skizziergeometrie (ISO)
100
AcDbLine
 10
-23.13990491532607
 20
7.773806338809468
 30
0.0
 11
-23.24575396258602
 21
7.91904974098335
 31
0.0
  0
LINE
  5
103
330
D2
100
AcDbEntity
  8
Skizziergeometrie (ISO)
100
AcDbLine
 10
-23.77001756906214
 20
7.590039876355962
 30
0.0
 11
-23.5879907807799
 21
7.524921696075281
 31
0.0
  0
ARC
  5
104
330
D2
100
AcDbEntity
  8
Skizziergeometrie (ISO)
100
AcDbCircle
 10
-23.32369020153624
 20
7.75106063018617
 30
0.0
 40
0.1619243095335294
100
AcDbArc
 50
12.14398738962304
 51
60.02290540987669
  0
ARC
  5
105
330
D2
100
AcDbEntity
  8
Skizziergeometrie (ISO)
100
AcDbCircle
 10
-23.56237653430956
 20
7.883493502694083
 30
0.0
 40
0.3462460077174411
100
AcDbArc
 50
237.7261995458445
 51
262.9055232599874
  0
TEXT
  5
106
330
D2
100
AcDbEntity
  8
Titel (ISO)
 62
     7
100
AcDbText
 10
-67.77000000000001
 20
10.07011705730681
 30
0.0
 40
1.500000059604644
  1
...50
  7
TolListe_12
100
AcDbText
  0
TEXT
  5
108
330
D2
100
AcDbEntity
  8
Titel (ISO)
 62
     7
100
AcDbText
 10
-67.77000000000001
 20
12.47011705730679
 30
0.0
 40
1.500000059604644
  1
>  10
  7
TolListe_12
100
AcDbText
  0
TEXT
  5
109
330
D2
100
AcDbEntity
  8
Titel (ISO)
 62
     7
100
AcDbText
 10
-77.52000000000001
 20
6.970117057306808
 30
0.0
 40
1.500000059604644
  1
Abmasse ±   Grad und Minuten)
  7
TolListe_12
100
AcDbText
  0
TEXT
  5
10A
330
D2
100
AcDbEntity
  8
Titel (ISO)
 62
     7
100
AcDbText
 10
-77.27000000000001
 20
10.07011705730681
 30
0.0
 40
1.500000059604644
  1
...10
  7
TolListe_12
100
AcDbText
  0
MTEXT
  5
10C
330
D2
100
AcDbEntity
  8
Titel (ISO)
 62
     7
100
AcDbMText
 10
-77.52000000000001
 20
0.4701170374385911
 30
0.0
 40
1.500000059604644
 41
0.0
 46
0.0
 71
     7
 72
     1
  1
\fAIGDT|b0|i0|p0;\fAIGDT|b0|i0;\H1.5000;`\fISOCPEUR|b0|i0;\W0.90;\H1.5000; 1\fAIGDT|b0|i0;\H1.5000;~\fISOCPEUR|b0|i0;\W0.90;\H1.5000;30
  7
TolListe_12-AIGDT
 73
     2
 44
1.0
  0
MTEXT
  5
10E
330
D2
100
AcDbEntity
  8
Titel (ISO)
 62
     7
100
AcDbMText
 10
-77.52000000000001
 20
3.470117037438589
 30
0.0
 40
1.500000059604644
 41
0.0
 46
0.0
 71
     7
 72
     1
  1
\fAIGDT|b0|i0|p0;\fAIGDT|b0|i0;\H1.5000;`\fISOCPEUR|b0|i0;\W0.90;\H1.5000; 1\fAIGDT|b0|i0;\H1.5000;~
  7
TolListe_12-AIGDT
 73
     2
 44
1.0
  0
TEXT
  5
10F
330
D2
100
AcDbEntity
  8
Titel (ISO)
 62
     7
100
AcDbText
 10
-97.77000000000001
 20
11.97011705730681
 30
0.0
 40
1.500000059604644
  1
für Winkelmasse
  7
TolListe_12
100
AcDbText
  0
TEXT
  5
110
330
D2
100
AcDbEntity
  8
Titel (ISO)
 62
     7
100
AcDbText
 10
-97.97000000000004
 20
6.970117057306808
 30
0.0
 40
1.500000059604644
  1
Genauigkeitsgrad
  7
TolListe_12
100
AcDbText
  0
TEXT
  5
111
330
D2
100
AcDbEntity
  8
Titel (ISO)
 62
     7
100
AcDbText
 10
-94.49929825881072
 20
0.9701170573068029
 30
0.0
 40
1.500000059604644
  1
c(grob)
  7
TolListe_12
100
AcDbText
  0
TEXT
  5
112
330
D2
100
AcDbEntity
  8
Titel (ISO)
 62
     7
100
AcDbText
 10
-69.51999999999999
 20
15.97011705730679
 30
0.0
 40
1.500000059604644
  1
Nennmass in mm = Länge des kürzeren Winkelschenkels
  7
TolListe_12
100
AcDbText
  0
TEXT
  5
113
330
D2
100
AcDbEntity
  8
Titel (ISO)
 62
     7
100
AcDbText
 10
-8.332499999999996
 20
10.07011705730681
 30
0.0
 40
1.500000059604644
  1
..400
  7
TolListe_12
100
AcDbText
  0
TEXT
  5
114
330
D2
100
AcDbEntity
  8
Titel (ISO)
 62
     7
100
AcDbText
 10
-8.332499999999996
 20
12.47011705730679
 30
0.0
 40
1.500000059604644
  1
> 120
  7
TolListe_12
100
AcDbText
  0
TEXT
  5
115
330
D2
100
AcDbEntity
  8
Titel (ISO)
 62
     7
100
AcDbText
 10
-18.64499999999999
 20
10.07011705730681
 30
0.0
 40
1.500000059604644
  1
..120
  7
TolListe_12
100
AcDbText
  0
TEXT
  5
116
330
D2
100
AcDbEntity
  8
Titel (ISO)
 62
     7
100
AcDbText
 10
-18.64499999999999
 20
12.47011705730679
 30
0.0
 40
1.500000059604644
  1
>  50
  7
TolListe_12
100
AcDbText
  0
TEXT
  5
117
330
D2
100
AcDbEntity
  8
Titel (ISO)
 62
     7
100
AcDbText
 10
-28.95749999999999
 20
10.07011705730681
 30
0.0
 40
1.500000059604644
  1
...50
  7
TolListe_12
100
AcDbText
  0
TEXT
  5
118
330
D2
100
AcDbEntity
  8
Titel (ISO)
 62
     7
100
AcDbText
 10
-28.95749999999999
 20
12.47011705730679
 30
0.0
 40
1.500000059604644
  1
>  10
  7
TolListe_12
100
AcDbText
  0
TEXT
  5
119
330
D2
100
AcDbEntity
  8
Titel (ISO)
 62
     7
100
AcDbText
 10
-39.26999999999999
 20
10.07011705730681
 30
0.0
 40
1.500000059604644
  1
...10
  7
TolListe_12
100
AcDbText
  0
MTEXT
  5
11A
330
D2
100
AcDbEntity
  8
Titel (ISO)
 62
     7
100
AcDbMText
 10
-17.895
 20
3.770673644983011
 30
0.0
 40
1.500000059604644
 41
0.0
 46
0.0
 71
     7
 72
     1
  1
\fAIGDT|b0|i0|p0;\fAIGDT|b0|i0;\H1.5000;`\fISOCPEUR|b0|i0;\W0.90;\H1.5000; 0,6
  7
TolListe_12-AIGDT
 73
     2
 44
1.0
  0
TEXT
  5
11B
330
D2
100
AcDbEntity
  8
Titel (ISO)
 62
     7
100
AcDbText
 10
-34.52000000000002
 20
6.970117057306808
 30
0.0
 40
1.500000059604644
  1
Abmasse ±     (mm/100mm)
  7
TolListe_12
100
AcDbText
  0
MTEXT
  5
11C
330
D2
100
AcDbEntity
  8
Titel (ISO)
 62
     7
100
AcDbMText
 10
-17.895
 20
0.7706736449830132
 30
0.0
 40
1.500000059604644
 41
0.0
 46
0.0
 71
     7
 72
     1
  1
\fAIGDT|b0|i0|p0;\fAIGDT|b0|i0;\H1.5000;`\fISOCPEUR|b0|i0;\W0.90;\H1.5000; 0,9
  7
TolListe_12-AIGDT
 73
     2
 44
1.0
  0
MTEXT
  5
11D
330
D2
100
AcDbEntity
  8
Titel (ISO)
 62
     7
100
AcDbMText
 10
-68.01999999999999
 20
0.4701170374385911
 30
0.0
 40
1.500000059604644
 41
0.0
 46
0.0
 71
     7
 72
     1
  1
\fAIGDT|b0|i0|p0;\fAIGDT|b0|i0;\H1.5000;`\fISOCPEUR|b0|i0;\W0.80;\H1.5000; 1\fAIGDT|b0|i0;\H1.5000;~
  7
TolListe_12-AIGDT
 73
     2
 44
1.0
  0
MTEXT
  5
11E
330
D2
100
AcDbEntity
  8
Titel (ISO)
 62
     7
100
AcDbMText
 10
-68.01999999999999
 20
3.470117037438589
 30
0.0
 40
1.500000059604644
 41
0.0
 46
0.0
 71
     7
 72
     1
  1
\fAIGDT|b0|i0|p0;\fAIGDT|b0|i0;\H1.5000;`\fISOCPEUR|b0|i0;\W0.80;\H1.5000; 30
  7
TolListe_12-AIGDT
 73
     2
 44
1.0
  0
MTEXT
  5
11F
330
D2
100
AcDbEntity
  8
Titel (ISO)
 62
     7
100
AcDbMText
 10
-58.52
 20
3.470117037438589
 30
0.0
 40
1.500000059604644
 41
0.0
 46
0.0
 71
     7
 72
     1
  1
\fAIGDT|b0|i0|p0;\fAIGDT|b0|i0;\H1.5000;`\fISOCPEUR|b0|i0;\W0.90;\H1.5000; 20
  7
TolListe_12-AIGDT
 73
     2
 44
1.0
  0
TEXT
  5
120
330
D2
100
AcDbEntity
  8
Titel (ISO)
 62
     7
100
AcDbText
 10
-48.77000000000001
 20
10.07011705730681
 30
0.0
 40
1.500000059604644
  1
..400
  7
TolListe_12
100
AcDbText
  0
TEXT
  5
121
330
D2
100
AcDbEntity
  8
Titel (ISO)
 62
     7
100
AcDbText
 10
-48.77000000000001
 20
12.47011705730679
 30
0.0
 40
1.500000059604644
  1
> 120
  7
TolListe_12
100
AcDbText
  0
MTEXT
  5
122
330
D2
100
AcDbEntity
  8
Titel (ISO)
 62
     7
100
AcDbMText
 10
-48.01999999999999
 20
0.4701170374385911
 30
0.0
 40
1.500000059604644
 41
0.0
 46
0.0
 71
     7
 72
     1
  1
\fAIGDT|b0|i0|p0;\fAIGDT|b0|i0;\H1.5000;`\fISOCPEUR|b0|i0;\W0.90;\H1.5000; 15
  7
TolListe_12-AIGDT
 73
     2
 44
1.0
  0
MTEXT
  5
123
330
D2
100
AcDbEntity
  8
Titel (ISO)
 62
     7
100
AcDbMText
 10
-58.52
 20
0.4701170374385911
 30
0.0
 40
1.500000059604644
 41
0.0
 46
0.0
 71
     7
 72
     1
  1
\fAIGDT|b0|i0|p0;\fAIGDT|b0|i0;\H1.5000;`\fISOCPEUR|b0|i0;\W0.90;\H1.5000; 30
  7
TolListe_12-AIGDT
 73
     2
 44
1.0
  0
MTEXT
  5
124
330
D2
100
AcDbEntity
  8
Titel (ISO)
 62
     7
100
AcDbMText
 10
-48.01999999999999
 20
3.470117037438589
 30
0.0
 40
1.500000059604644
 41
0.0
 46
0.0
 71
     7
 72
     1
  1
\fAIGDT|b0|i0|p0;\fAIGDT|b0|i0;\H1.5000;`\fISOCPEUR|b0|i0;\W0.90;\H1.5000; 10
  7
TolListe_12-AIGDT
 73
     2
 44
1.0
  0
TEXT
  5
125
330
D2
100
AcDbEntity
  8
Titel (ISO)
 62
     7
100
AcDbText
 10
-139.52
 20
15.97011705730679
 30
0.0
 40
1.500000059604644
  1
Nennmass mm
  7
TolListe_12
100
AcDbText
  0
MTEXT
  5
126
330
D2
100
AcDbEntity
  8
Titel (ISO)
 62
     7
100
AcDbMText
 10
-38.52
 20
0.7706736449830132
 30
0.0
 40
1.500000059604644
 41
0.0
 46
0.0
 71
     7
 72
     1
  1
\fAIGDT|b0|i0|p0;\fAIGDT|b0|i0;\H1.5000;`\fISOCPEUR|b0|i0;\W0.90;\H1.5000; 2,5
  7
TolListe_12-AIGDT
 73
     2
 44
1.0
  0
MTEXT
  5
127
330
D2
100
AcDbEntity
  8
Titel (ISO)
 62
     7
100
AcDbMText
 10
-28.2075
 20
0.7706736449830132
 30
0.0
 40
1.500000059604644
 41
0.0
 46
0.0
 71
     7
 72
     1
  1
\fAIGDT|b0|i0|p0;\fAIGDT|b0|i0;\H1.5000;`\fISOCPEUR|b0|i0;\W0.90;\H1.5000; 1,7
  7
TolListe_12-AIGDT
 73
     2
 44
1.0
  0
MTEXT
  5
128
330
D2
100
AcDbEntity
  8
Titel (ISO)
 62
     7
100
AcDbMText
 10
-7.582500000000003
 20
3.770673644983011
 30
0.0
 40
1.500000059604644
 41
0.0
 46
0.0
 71
     7
 72
     1
  1
\fAIGDT|b0|i0|p0;\fAIGDT|b0|i0;\H1.5000;`\fISOCPEUR|b0|i0;\W0.90;\H1.5000; 0,3
  7
TolListe_12-AIGDT
 73
     2
 44
1.0
  0
MTEXT
  5
129
330
D2
100
AcDbEntity
  8
Titel (ISO)
 62
     7
100
AcDbMText
 10
-7.582500000000003
 20
0.7706736449830132
 30
0.0
 40
1.500000059604644
 41
0.0
 46
0.0
 71
     7
 72
     1
  1
\fAIGDT|b0|i0|p0;\fAIGDT|b0|i0;\H1.5000;`\fISOCPEUR|b0|i0;\W0.90;\H1.5000; 0,4
  7
TolListe_12-AIGDT
 73
     2
 44
1.0
  0
TEXT
  5
12A
330
D2
100
AcDbEntity
  8
Titel (ISO)
 62
     7
100
AcDbText
 10
-58.26999999999999
 20
10.07011705730681
 30
0.0
 40
1.500000059604644
  1
..120
  7
TolListe_12
100
AcDbText
  0
TEXT
  5
12B
330
D2
100
AcDbEntity
  8
Titel (ISO)
 62
     7
100
AcDbText
 10
-58.26999999999999
 20
12.47011705730679
 30
0.0
 40
1.500000059604644
  1
>  50
  7
TolListe_12
100
AcDbText
  0
MTEXT
  5
12C
330
D2
100
AcDbEntity
  8
Titel (ISO)
 62
     7
100
AcDbMText
 10
-38.52
 20
3.770673644983011
 30
0.0
 40
1.500000059604644
 41
0.0
 46
0.0
 71
     7
 72
     1
  1
\fAIGDT|b0|i0|p0;\fAIGDT|b0|i0;\H1.5000;`\fISOCPEUR|b0|i0;\W0.90;\H1.5000; 1,7
  7
TolListe_12-AIGDT
 73
     2
 44
1.0
  0
MTEXT
  5
12D
330
D2
100
AcDbEntity
  8
Titel (ISO)
 62
     7
100
AcDbMText
 10
-28.2075
 20
3.770673644983011
 30
0.0
 40
1.500000059604644
 41
0.0
 46
0.0
 71
     7
 72
     1
  1
\fAIGDT|b0|i0|p0;\fAIGDT|b0|i0;\H1.5000;`\fISOCPEUR|b0|i0;\W0.90;\H1.5000; 0,9
  7
TolListe_12-AIGDT
 73
     2
 44
1.0
  0
MTEXT
  5
12E
330
D2
100
AcDbEntity
  8
Titel (ISO)
 62
     7
100
AcDbMText
 10
-137.908889
 20
6.770673644983009
 30
0.0
 40
1.500000059604644
 41
0.0
 46
0.0
 71
     7
 72
     1
  1
\fAIGDT|b0|i0|p0;\fAIGDT|b0|i0;\H1.5000;`\fISOCPEUR|b0|i0;\W0.90;\H1.5000; 0,2
  7
TolListe_12-AIGDT
 73
     2
 44
1.0
  0
TEXT
  5
12F
330
D2
100
AcDbEntity
  8
Titel (ISO)
 62
     7
100
AcDbText
 10
-137.908889
 20
10.07011705730681
 30
0.0
 40
1.500000059604644
  1
..400
  7
TolListe_12
100
AcDbText
  0
MTEXT
  5
130
330
D2
100
AcDbEntity
  8
Titel (ISO)
 62
     7
100
AcDbMText
 10
-137.908889
 20
0.7706736449830132
 30
0.0
 40
1.500000059604644
 41
0.0
 46
0.0
 71
     7
 72
     1
  1
\fAIGDT|b0|i0|p0;\fAIGDT|b0|i0;\H1.5000;`\fISOCPEUR|b0|i0;\W0.90;\H1.5000; 1,2
  7
TolListe_12-AIGDT
 73
     2
 44
1.0
  0
MTEXT
  5
131
330
D2
100
AcDbEntity
  8
Titel (ISO)
 62
     7
100
AcDbMText
 10
-137.908889
 20
3.770673644983011
 30
0.0
 40
1.500000059604644
 41
0.0
 46
0.0
 71
     7
 72
     1
  1
\fAIGDT|b0|i0|p0;\fAIGDT|b0|i0;\H1.5000;`\fISOCPEUR|b0|i0;\W0.90;\H1.5000; 0,5
  7
TolListe_12-AIGDT
 73
     2
 44
1.0
  0
MTEXT
  5
132
330
D2
100
AcDbEntity
  8
Titel (ISO)
 62
     7
100
AcDbMText
 10
-145.936667
 20
0.7706736449830132
 30
0.0
 40
1.500000059604644
 41
0.0
 46
0.0
 71
     7
 72
     1
  1
\fAIGDT|b0|i0|p0;\fAIGDT|b0|i0;\H1.5000;`\fISOCPEUR|b0|i0;\W0.90;\H1.5000; 0,8
  7
TolListe_12-AIGDT
 73
     2
 44
1.0
  0
MTEXT
  5
133
330
D2
100
AcDbEntity
  8
Titel (ISO)
 62
     7
100
AcDbMText
 10
-153.964444
 20
0.7706736449830132
 30
0.0
 40
1.500000059604644
 41
0.0
 46
0.0
 71
     7
 72
     1
  1
\fAIGDT|b0|i0|p0;\fAIGDT|b0|i0;\H1.5000;`\fISOCPEUR|b0|i0;\W0.80;\H1.5000; 0,5
  7
TolListe_12-AIGDT
 73
     2
 44
1.0
  0
MTEXT
  5
134
330
D2
100
AcDbEntity
  8
Titel (ISO)
 62
     7
100
AcDbMText
 10
-145.936667
 20
6.770673644983009
 30
0.0
 40
1.500000059604644
 41
0.0
 46
0.0
 71
     7
 72
     1
  1
\fAIGDT|b0|i0|p0;\fAIGDT|b0|i0;\H1.5000;`\fISOCPEUR|b0|i0;\W0.90;\H1.5000; 0,15
  7
TolListe_12-AIGDT
 73
     2
 44
1.0
  0
MTEXT
  5
135
330
D2
100
AcDbEntity
  8
Titel (ISO)
 62
     7
100
AcDbMText
 10
-145.936667
 20
3.770673644983011
 30
0.0
 40
1.500000059604644
 41
0.0
 46
0.0
 71
     7
 72
     1
  1
\fAIGDT|b0|i0|p0;\fAIGDT|b0|i0;\H1.5000;`\fISOCPEUR|b0|i0;\W0.90;\H1.5000; 0,3
  7
TolListe_12-AIGDT
 73
     2
 44
1.0
  0
MTEXT
  5
136
330
D2
100
AcDbEntity
  8
Titel (ISO)
 62
     7
100
AcDbMText
 10
-153.964444
 20
3.770673644983011
 30
0.0
 40
1.500000059604644
 41
0.0
 46
0.0
 71
     7
 72
     1
  1
\fAIGDT|b0|i0|p0;\fAIGDT|b0|i0;\H1.5000;`\fISOCPEUR|b0|i0;\W0.80;\H1.5000; 0,2
  7
TolListe_12-AIGDT
 73
     2
 44
1.0
  0
TEXT
  5
137
330
D2
100
AcDbEntity
  8
Titel (ISO)
 62
     7
100
AcDbText
 10
-153.964444
 20
12.47011705730679
 30
0.0
 40
1.500000059604644
  1
>  6
  7
TolListe_12
100
AcDbText
  0
TEXT
  5
138
330
D2
100
AcDbEntity
  8
Titel (ISO)
 62
     7
100
AcDbText
 10
-153.964444
 20
10.07011705730681
 30
0.0
 40
1.500000059604644
  1
..30
  7
TolListe_12
100
AcDbText
  0
MTEXT
  5
139
330
D2
100
AcDbEntity
  8
Titel (ISO)
 62
     7
100
AcDbMText
 10
-161.992222
 20
3.770673644983011
 30
0.0
 40
1.500000059604644
 41
0.0
 46
0.0
 71
     7
 72
     1
  1
\fAIGDT|b0|i0|p0;\fAIGDT|b0|i0;\H1.5000;`\fISOCPEUR|b0|i0;\W0.90;\H1.5000; 0,1
  7
TolListe_12-AIGDT
 73
     2
 44
1.0
  0
MTEXT
  5
13A
330
D2
100
AcDbEntity
  8
Titel (ISO)
 62
     7
100
AcDbMText
 10
-161.992222
 20
6.770673644983009
 30
0.0
 40
1.500000059604644
 41
0.0
 46
0.0
 71
     7
 72
     1
  1
\fAIGDT|b0|i0|p0;\fAIGDT|b0|i0;\H1.5000;`\fISOCPEUR|b0|i0;\W0.90;\H1.5000; 0,05
  7
TolListe_12-AIGDT
 73
     2
 44
1.0
  0
TEXT
  5
13B
330
D2
100
AcDbEntity
  8
Titel (ISO)
 62
     7
100
AcDbText
 10
-161.992222
 20
10.07011705730681
 30
0.0
 40
1.500000059604644
  1
...6
  7
TolListe_12
100
AcDbText
  0
TEXT
  5
13C
330
D2
100
AcDbEntity
  8
Titel (ISO)
 62
     7
100
AcDbText
 10
-161.992222
 20
12.47011705730679
 30
0.0
 40
1.500000059604644
  1
>  3
  7
TolListe_12
100
AcDbText
  0
MTEXT
  5
13D
330
D2
100
AcDbEntity
  8
Titel (ISO)
 62
     7
100
AcDbMText
 10
-153.964444
 20
6.770673644983009
 30
0.0
 40
1.500000059604644
 41
0.0
 46
0.0
 71
     7
 72
     1
  1
\fAIGDT|b0|i0|p0;\fAIGDT|b0|i0;\H1.5000;`\fISOCPEUR|b0|i0;\W0.80;\H1.5000; 0,1
  7
TolListe_12-AIGDT
 73
     2
 44
1.0
  0
MTEXT
  5
13E
330
D2
100
AcDbEntity
  8
Titel (ISO)
 62
     7
100
AcDbMText
 10
-161.992222
 20
0.7706736449830132
 30
0.0
 40
1.500000059604644
 41
0.0
 46
0.0
 71
     7
 72
     1
  1
\fAIGDT|b0|i0|p0;\fAIGDT|b0|i0;\H1.5000;`\fISOCPEUR|b0|i0;\W0.90;\H1.5000; 0,3
  7
TolListe_12-AIGDT
 73
     2
 44
1.0
  0
MTEXT
  5
13F
330
D2
100
AcDbEntity
  8
Titel (ISO)
 62
     7
100
AcDbMText
 10
-170.02
 20
3.770673644983011
 30
0.0
 40
1.500000059604644
 41
0.0
 46
0.0
 71
     7
 72
     1
  1
\fAIGDT|b0|i0|p0;\fAIGDT|b0|i0;\H1.5000;`\fISOCPEUR|b0|i0;\W0.90;\H1.5000; 0,1
  7
TolListe_12-AIGDT
 73
     2
 44
1.0
  0
MTEXT
  5
140
330
D2
100
AcDbEntity
  8
Titel (ISO)
 62
     7
100
AcDbMText
 10
-170.02
 20
0.7706736449830132
 30
0.0
 40
1.500000059604644
 41
0.0
 46
0.0
 71
     7
 72
     1
  1
\fAIGDT|b0|i0|p0;\fAIGDT|b0|i0;\H1.5000;`\fISOCPEUR|b0|i0;\W0.90;\H1.5000; 0,2
  7
TolListe_12-AIGDT
 73
     2
 44
1.0
  0
MTEXT
  5
141
330
D2
100
AcDbEntity
  8
Titel (ISO)
 62
     7
100
AcDbMText
 10
-170.02
 20
6.770673644983009
 30
0.0
 40
1.500000059604644
 41
0.0
 46
0.0
 71
     7
 72
     1
  1
\fAIGDT|b0|i0|p0;\fAIGDT|b0|i0;\H1.5000;`\fISOCPEUR|b0|i0;\W0.90;\H1.5000; 0,05
  7
TolListe_12-AIGDT
 73
     2
 44
1.0
  0
TEXT
  5
142
330
D2
100
AcDbEntity
  8
Titel (ISO)
 62
     7
100
AcDbText
 10
-170.02
 20
12.47011705730679
 30
0.0
 40
1.500000059604644
  1
>  0,5
  7
TolListe_12
100
AcDbText
  0
TEXT
  5
143
330
D2
100
AcDbEntity
  8
Titel (ISO)
 62
     7
100
AcDbText
 10
-145.936667
 20
10.07011705730681
 30
0.0
 40
1.500000059604644
  1
..120
  7
TolListe_12
100
AcDbText
  0
TEXT
  5
144
330
D2
100
AcDbEntity
  8
Titel (ISO)
 62
     7
100
AcDbText
 10
-145.936667
 20
12.47011705730679
 30
0.0
 40
1.500000059604644
  1
>  30
  7
TolListe_12
100
AcDbText
  0
TEXT
  5
145
330
D2
100
AcDbEntity
  8
Titel (ISO)
 62
     7
100
AcDbText
 10
-137.908889
 20
12.47011705730679
 30
0.0
 40
1.500000059604644
  1
> 120
  7
TolListe_12
100
AcDbText
  0
TEXT
  5
146
330
D2
100
AcDbEntity
  8
Titel (ISO)
 62
     7
100
AcDbText
 10
-88.26999999999999
 20
3.970117057306801
 30
0.0
 40
1.500000059604644
  1
m(mittel)
  7
TolListe_12
100
AcDbText
  0
TEXT
  5
147
330
D2
100
AcDbEntity
  8
Titel (ISO)
 62
     7
100
AcDbText
 10
-189.02
 20
12.89999999999995
 30
0.0
 40
1.500000059604644
  1
für Längenmasse
  7
TolListe_12
100
AcDbText
  0
TEXT
  5
148
330
D2
100
AcDbEntity
  8
Titel (ISO)
 62
     7
100
AcDbText
 10
-189.02
 20
9.899999999999966
 30
0.0
 40
1.500000059604644
  1
Genauigkeitsgrad
  7
TolListe_12
100
AcDbText
  0
TEXT
  5
149
330
D2
100
AcDbEntity
  8
Titel (ISO)
 62
     7
100
AcDbText
 10
-170.02
 20
10.07011705730681
 30
0.0
 40
1.500000059604644
  1
...3
  7
TolListe_12
100
AcDbText
  0
TEXT
  5
14A
330
D2
100
AcDbEntity
  8
Titel (ISO)
 62
     7
100
AcDbText
 10
-182.02
 20
3.899999999999987
 30
0.0
 40
1.500000059604644
  1
m (mittel)
  7
TolListe_12
100
AcDbText
  0
TEXT
  5
14B
330
D2
100
AcDbEntity
  8
Titel (ISO)
 62
     7
100
AcDbText
 10
-182.02
 20
6.899999999999977
 30
0.0
 40
1.500000059604644
  1
f (fein)
  7
TolListe_12
100
AcDbText
  0
TEXT
  5
14C
330
D2
100
AcDbEntity
  8
Titel (ISO)
 62
     7
100
AcDbText
 10
-182.02
 20
0.8999999999999985
 30
0.0
 40
1.500000059604644
  1
c (grob)
  7
TolListe_12
100
AcDbText
  0
TEXT
  5
14D
330
D2
100
AcDbEntity
  8
Titel (ISO)
 62
     7
100
AcDbText
 10
-189.02
 20
14.8701170573068
 30
0.0
 40
1.500000059604644
  1
toleranzen
  7
TolListe_12
100
AcDbText
  0
TEXT
  5
14E
330
D2
100
AcDbEntity
  8
Titel (ISO)
 62
     7
100
AcDbText
 10
-189.02
 20
16.77011705730679
 30
0.0
 40
1.500000059604644
  1
Allgemein-
  7
TolListe_12
100
AcDbText
  0
TEXT
  5
14F
330
D2
100
AcDbEntity
  8
Titel (ISO)
 62
     7
100
AcDbText
 10
-105.797778
 20
10.07011705730681
 30
0.0
 40
1.500000059604644
  1
..8000
  7
TolListe_12
100
AcDbText
  0
TEXT
  5
150
330
D2
100
AcDbEntity
  8
Titel (ISO)
 62
     7
100
AcDbText
 10
-105.797778
 20
12.47011705730679
 30
0.0
 40
1.500000059604644
  1
> 4000
  7
TolListe_12
100
AcDbText
  0
MTEXT
  5
151
330
D2
100
AcDbEntity
  8
Titel (ISO)
 62
     7
100
AcDbMText
 10
-105.797778
 20
3.470117037438589
 30
0.0
 40
1.500000059604644
 41
0.0
 46
0.0
 71
     7
 72
     1
  1
\fAIGDT|b0|i0|p0;\fAIGDT|b0|i0;\H1.5000;`\fISOCPEUR|b0|i0;\W0.80;\H1.5000; 3
  7
TolListe_12-AIGDT
 73
     2
 44
1.0
  0
MTEXT
  5
152
330
D2
100
AcDbEntity
  8
Titel (ISO)
 62
     7
100
AcDbMText
 10
-105.797778
 20
0.4701170374385911
 30
0.0
 40
1.500000059604644
 41
0.0
 46
0.0
 71
     7
 72
     1
  1
\fAIGDT|b0|i0|p0;\fAIGDT|b0|i0;\H1.5000;`\fISOCPEUR|b0|i0;\W0.80;\H1.5000; 5
  7
TolListe_12-AIGDT
 73
     2
 44
1.0
  0
TEXT
  5
153
330
D2
100
AcDbEntity
  8
Titel (ISO)
 62
     7
100
AcDbText
 10
-97.77000000000001
 20
14.37011705730681
 30
0.0
 40
1.500000059604644
  1
toleranzen
  7
TolListe_12
100
AcDbText
  0
TEXT
  5
154
330
D2
100
AcDbEntity
  8
Titel (ISO)
 62
     7
100
AcDbText
 10
-97.77000000000001
 20
16.77011705730679
 30
0.0
 40
1.500000059604644
  1
Allgemein-
  7
TolListe_12
100
AcDbText
  0
MTEXT
  5
155
330
D2
100
AcDbEntity
  8
Titel (ISO)
 62
     7
100
AcDbMText
 10
-121.853333
 20
3.770673644983011
 30
0.0
 40
1.500000059604644
 41
0.0
 46
0.0
 71
     7
 72
     1
  1
\fAIGDT|b0|i0|p0;\fAIGDT|b0|i0;\H1.5000;`\fISOCPEUR|b0|i0;\W0.90;\H1.5000; 1,2
  7
TolListe_12-AIGDT
 73
     2
 44
1.0
  0
MTEXT
  5
156
330
D2
100
AcDbEntity
  8
Titel (ISO)
 62
     7
100
AcDbMText
 10
-121.853333
 20
0.4701170374385911
 30
0.0
 40
1.500000059604644
 41
0.0
 46
0.0
 71
     7
 72
     1
  1
\fAIGDT|b0|i0|p0;\fAIGDT|b0|i0;\H1.5000;`\fISOCPEUR|b0|i0;\W0.90;\H1.5000; 3
  7
TolListe_12-AIGDT
 73
     2
 44
1.0
  0
TEXT
  5
157
330
D2
100
AcDbEntity
  8
Titel (ISO)
 62
     7
100
AcDbText
 10
-113.825556
 20
10.07011705730681
 30
0.0
 40
1.500000059604644
  1
..4000
  7
TolListe_12
100
AcDbText
  0
TEXT
  5
158
330
D2
100
AcDbEntity
  8
Titel (ISO)
 62
     7
100
AcDbText
 10
-113.825556
 20
12.47011705730679
 30
0.0
 40
1.500000059604644
  1
> 2000
  7
TolListe_12
100
AcDbText
  0
TEXT
  5
159
330
D2
100
AcDbEntity
  8
Titel (ISO)
 62
     7
100
AcDbText
 10
-121.853333
 20
10.07011705730681
 30
0.0
 40
1.500000059604644
  1
..2000
  7
TolListe_12
100
AcDbText
  0
TEXT
  5
15A
330
D2
100
AcDbEntity
  8
Titel (ISO)
 62
     7
100
AcDbText
 10
-121.853333
 20
12.47011705730679
 30
0.0
 40
1.500000059604644
  1
> 1000
  7
TolListe_12
100
AcDbText
  0
MTEXT
  5
15B
330
D2
100
AcDbEntity
  8
Titel (ISO)
 62
     7
100
AcDbMText
 10
-121.853333
 20
6.770673644983009
 30
0.0
 40
1.500000059604644
 41
0.0
 46
0.0
 71
     7
 72
     1
  1
\fAIGDT|b0|i0|p0;\fAIGDT|b0|i0;\H1.5000;`\fISOCPEUR|b0|i0;\W0.90;\H1.5000; 0,5
  7
TolListe_12-AIGDT
 73
     2
 44
1.0
  0
MTEXT
  5
15C
330
D2
100
AcDbEntity
  8
Titel (ISO)
 62
     7
100
AcDbMText
 10
-113.825556
 20
3.470117037438589
 30
0.0
 40
1.500000059604644
 41
0.0
 46
0.0
 71
     7
 72
     1
  1
\fAIGDT|b0|i0|p0;\fAIGDT|b0|i0;\H1.5000;`\fISOCPEUR|b0|i0;\W0.90;\H1.5000; 2
  7
TolListe_12-AIGDT
 73
     2
 44
1.0
  0
MTEXT
  5
15D
330
D2
100
AcDbEntity
  8
Titel (ISO)
 62
     7
100
AcDbMText
 10
-113.825556
 20
0.4701170374385911
 30
0.0
 40
1.500000059604644
 41
0.0
 46
0.0
 71
     7
 72
     1
  1
\fAIGDT|b0|i0|p0;\fAIGDT|b0|i0;\H1.5000;`\fISOCPEUR|b0|i0;\W0.90;\H1.5000; 4
  7
TolListe_12-AIGDT
 73
     2
 44
1.0
  0
MTEXT
  5
15E
330
D2
100
AcDbEntity
  8
Titel (ISO)
 62
     7
100
AcDbMText
 10
-129.881111
 20
6.770673644983009
 30
0.0
 40
1.500000059604644
 41
0.0
 46
0.0
 71
     7
 72
     1
  1
\fAIGDT|b0|i0|p0;\fAIGDT|b0|i0;\H1.5000;`\fISOCPEUR|b0|i0;\W0.90;\H1.5000; 0,3
  7
TolListe_12-AIGDT
 73
     2
 44
1.0
  0
TEXT
  5
15F
330
D2
100
AcDbEntity
  8
Titel (ISO)
 62
     7
100
AcDbText
 10
-129.881111
 20
10.07011705730681
 30
0.0
 40
1.500000059604644
  1
..1000
  7
TolListe_12
100
AcDbText
  0
TEXT
  5
160
330
D2
100
AcDbEntity
  8
Titel (ISO)
 62
     7
100
AcDbText
 10
-129.881111
 20
12.47011705730679
 30
0.0
 40
1.500000059604644
  1
>  400
  7
TolListe_12
100
AcDbText
  0
MTEXT
  5
161
330
D2
100
AcDbEntity
  8
Titel (ISO)
 62
     7
100
AcDbMText
 10
-129.881111
 20
0.4701170374385911
 30
0.0
 40
1.500000059604644
 41
0.0
 46
0.0
 71
     7
 72
     1
  1
\fAIGDT|b0|i0|p0;\fAIGDT|b0|i0;\H1.5000;`\fISOCPEUR|b0|i0;\W0.90;\H1.5000; 2
  7
TolListe_12-AIGDT
 73
     2
 44
1.0
  0
MTEXT
  5
162
330
D2
100
AcDbEntity
  8
Titel (ISO)
 62
     7
100
AcDbMText
 10
-129.881111
 20
3.770673644983011
 30
0.0
 40
1.500000059604644
 41
0.0
 46
0.0
 71
     7
 72
     1
  1
\fAIGDT|b0|i0|p0;\fAIGDT|b0|i0;\H1.5000;`\fISOCPEUR|b0|i0;\W0.90;\H1.5000; 0,8
  7
TolListe_12-AIGDT
 73
     2
 44
1.0
  0
TEXT
  5
163
330
D2
100
AcDbEntity
  8
Titel (ISO)
 62
     7
100
AcDbText
 10
-94.3154314551193
 20
3.970117057306801
 30
0.0
 40
1.500000059604644
  1
f(fein)
 41
0.7999999523162842
  7
TolListe_12
100
AcDbText
  0
TEXT
  5
165
330
D2
100
AcDbEntity
  8
Titel (ISO)
 62
     7
100
AcDbText
 10
-189.02
 20
6.399999985098823
 30
0.0
 40
2.000000029802322
  1
 
 41
1.099999904632568
  7
TolListe_12-Arial
 11
-189.02
 21
7.399999999999984
 31
0.0
100
AcDbText
 73
     2
  0
TEXT
  5
167
330
D2
100
AcDbEntity
  8
Titel (ISO)
 62
     7
100
AcDbText
 10
-189.02
 20
3.399999985098824
 30
0.0
 40
2.000000029802322
  1
 
 41
1.099999904632568
  7
TolListe_12-Arial
 11
-189.02
 21
4.399999999999986
 31
0.0
100
AcDbText
 73
     2
  0
TEXT
  5
168
330
D2
100
AcDbEntity
  8
Titel (ISO)
 62
     7
100
AcDbText
 10
-189.02
 20
0.3999999850988356
 30
0.0
 40
2.000000029802322
  1
 
 41
1.099999904632568
  7
TolListe_12-Arial
 11
-189.02
 21
1.399999999999996
 31
0.0
100
AcDbText
 73
     2
  0
ATTDEF
  5
169
102
{ACAD_XDICTIONARY
360
472
102
}
330
D2
100
AcDbEntity
  8
Titel (ISO)
 62
     7
100
AcDbText
 10
-98.35000000000002
 20
3.499999985098831
 30
0.0
 40
2.000000029802322
  1

 41
0.899999976158142
  7
TolListe_12-Arial
 11
-98.35000000000002
 21
4.499999999999992
 31
0.0
100
AcDbAttributeDefinition
  3
TolWinkel_Fein
  2
TolWinkel_Fein
 70
     0
 74
     2
280
     0
  0
ATTDEF
  5
16B
102
{ACAD_XDICTIONARY
360
474
102
}
330
D2
100
AcDbEntity
  8
Titel (ISO)
 62
     7
100
AcDbText
 10
-98.35000000000002
 20
0.4999999850988424
 30
0.0
 40
2.000000029802322
  1
X
 41
1.1
  7
TolListe_12-Arial
100
AcDbAttributeDefinition
  3
TolWinkel_Grob
  2
TolWinkel_Grob_001
 70
     0
280
     0
  0
TEXT
  5
16C
330
D2
100
AcDbEntity
  8
Titel (ISO)
 62
     7
100
AcDbText
 10
-23.10385197106264
 20
6.481150342666044
 30
0.0
 40
1.199999973177909
  1
R
 41
0.899999976158142
  7
TolListe_12
100
AcDbText
  0
ENDBLK
  5
D4
330
D2
100
AcDbEntity
  8
0
100
AcDbBlockEnd
  0
BLOCK
  5
16E
330
16D
100
AcDbEntity
  8
0
100
AcDbBlockBegin
  2
ProtoTyp
 70
     0
 10
0.0
 20
0.0
 30
0.0
  3
ProtoTyp
  1

  0
MTEXT
  5
170
330
16D
100
AcDbEntity
  8
Symbol (ISO)
100
AcDbMText
 10
-15.0
 20
5.000000000000088
 30
0.0
 40
5.0
 41
113.3539674448862
 46
0.0
 71
     9
 72
     5
  1
\fArial|b1|i0;\W1.20;\H5.0000;Prototyp 
  7
Notiztext (DIN)
 73
     1
 44
1.0
  0
ENDBLK
  5
16F
330
16D
100
AcDbEntity
  8
0
100
AcDbBlockEnd
  0
BLOCK
  5
173
330
172
100
AcDbEntity
  8
0
100
AcDbBlockBegin
  2
Logo
 70
     0
 10
0.0
 20
0.0
 30
0.0
  3
Logo
  1

  0
LINE
  5
175
102
{ACAD_REACTORS
330
180
102
}
330
172
100
AcDbEntity
  8
0
100
AcDbLine
 10
-63.82219267516564
 20
13.78707153306683
 30
0.0
 11
-63.44194367516561
 21
13.78707153306683
 31
0.0
  0
SPLINE
  5
176
102
{ACAD_REACTORS
330
180
102
}
330
172
100
AcDbEntity
  8
0
100
AcDbSpline
210
0.0
220
0.0
230
1.0
 70
     8
 71
     3
 72
    13
 73
     9
 74
     0
 42
0.0000000001
 43
0.0000000001
 40
-0.2488465402991201
 40
-0.2488465402991201
 40
-0.2488465402991201
 40
-0.2488465402991201
 40
-0.213514800971061
 40
-0.1813686001396738
 40
-0.151852207945606
 40
-0.122610058815004
 40
-0.0548379298616244
 40
0.0
 40
0.0
 40
0.0
 40
0.0
 10
-63.44194367516561
 20
13.78707153306683
 30
0.0
 10
-63.32417121073874
 20
13.78707153306683
 30
0.0
 10
-63.08419178569152
 20
13.80580234228952
 30
0.0
 10
-62.85168098131063
 20
14.06077992123113
 30
0.0
 10
-62.75106357115923
 20
14.3528991457025
 30
0.0
 10
-62.73688326920373
 20
14.7669903791009
 30
0.0
 10
-62.81190429146026
 20
15.35988989299784
 30
0.0
 10
-63.28410391460164
 20
15.46016853306682
 30
0.0
 10
-63.46689701414039
 20
15.46016853306682
 30
0.0
  0
LINE
  5
177
102
{ACAD_REACTORS
330
180
102
}
330
172
100
AcDbEntity
  8
0
100
AcDbLine
 10
-63.46689701414039
 20
15.46016853306682
 30
0.0
 11
-63.82219267516564
 21
15.46016853306682
 31
0.0
  0
LINE
  5
178
102
{ACAD_REACTORS
330
180
102
}
330
172
100
AcDbEntity
  8
0
100
AcDbLine
 10
-63.82219267516564
 20
15.46016853306682
 30
0.0
 11
-63.82219267516564
 21
13.78707153306683
 31
0.0
  0
LINE
  5
179
102
{ACAD_REACTORS
330
180
102
}
330
172
100
AcDbEntity
  8
0
100
AcDbLine
 10
-63.09258967516566
 20
16.44881753306684
 30
0.0
 11
-65.1910906751657
 21
16.44881753306684
 31
0.0
  0
SPLINE
  5
17A
102
{ACAD_REACTORS
330
180
102
}
330
172
100
AcDbEntity
  8
0
100
AcDbSpline
210
0.0
220
0.0
230
1.0
 70
     8
 71
     3
 72
    11
 73
     7
 74
     0
 42
0.0000000001
 43
0.0000000001
 40
0.2936837717354933
 40
0.2936837717354933
 40
0.2936837717354933
 40
0.2936837717354933
 40
0.3486086586423288
 40
0.4181833865755395
 40
0.4874646771879993
 40
0.5758658507171156
 40
0.5758658507171156
 40
0.5758658507171156
 40
0.5758658507171156
 10
-61.3885963599133
 20
14.628373224245
 30
0.0
 10
-61.3866327111799
 20
14.81461430976022
 30
0.0
 10
-61.42180843855425
 20
15.22586839198035
 30
0.0
 10
-61.65248502722848
 20
15.84811296147202
 30
0.0
 10
-62.25323916657581
 20
16.38211568442156
 30
0.0
 10
-62.79106792157026
 20
16.42485607934071
 30
0.0
 10
-63.09258967516566
 20
16.44881753306684
 30
0.0
  0
SPLINE
  5
17B
102
{ACAD_REACTORS
330
180
102
}
330
172
100
AcDbEntity
  8
0
100
AcDbSpline
210
0.0
220
0.0
230
1.0
 70
     8
 71
     3
 72
    10
 73
     6
 74
     0
 42
0.0000000001
 43
0.0000000001
 40
0.0
 40
0.0
 40
0.0
 40
0.0
 40
0.0653965997920125
 40
0.148785267001393
 40
0.2936837717354933
 40
0.2936837717354933
 40
0.2936837717354933
 40
0.2936837717354933
 10
-63.2280526751656
 20
12.79842253306682
 30
0.0
 10
-63.00807050524145
 20
12.79414883947174
 30
0.0
 10
-62.50758414980694
 20
12.78442566357808
 30
0.0
 10
-61.5936272368743
 20
13.31022024821636
 30
0.0
 10
-61.3937767031296
 20
14.13704668119749
 30
0.0
 10
-61.3885963599133
 20
14.628373224245
 30
0.0
  0
LINE
  5
17C
102
{ACAD_REACTORS
330
180
102
}
330
172
100
AcDbEntity
  8
0
100
AcDbLine
 10
-63.82219267516564
 20
12.79842253306682
 30
0.0
 11
-63.2280526751656
 21
12.79842253306682
 31
0.0
  0
LINE
  5
17D
102
{ACAD_REACTORS
330
180
102
}
330
172
100
AcDbEntity
  8
0
100
AcDbLine
 10
-63.82219267516564
 20
10.44087653306682
 30
0.0
 11
-63.82219267516564
 21
12.79842253306682
 31
0.0
  0
LINE
  5
17E
102
{ACAD_REACTORS
330
180
102
}
330
172
100
AcDbEntity
  8
0
100
AcDbLine
 10
-65.1910906751657
 20
10.44087653306682
 30
0.0
 11
-63.82219267516564
 21
10.44087653306682
 31
0.0
  0
LINE
  5
17F
102
{ACAD_REACTORS
330
180
102
}
330
172
100
AcDbEntity
  8
0
100
AcDbLine
 10
-65.1910906751657
 20
16.44881753306684
 30
0.0
 11
-65.1910906751657
 21
10.44087653306682
 31
0.0
  0
HATCH
  5
180
330
172
100
AcDbEntity
  8
Schraffur (ISO)
100
AcDbHatch
 10
0.0
 20
0.0
 30
0.0
210
0.0
220
0.0
230
1.0
  2
SOLID
 70
     1
 71
     1
 91
        2
 92
        0
 93
        4
 72
     1
 10
-63.82219267516564
 20
13.78707153306683
 11
-63.44194367516561
 21
13.78707153306683
 72
     4
 94
        3
 73
     0
 74
     0
 95
       13
 96
        9
 40
-0.2488465402991201
 40
-0.2488465402991201
 40
-0.2488465402991201
 40
-0.2488465402991201
 40
-0.213514800971061
 40
-0.1813686001396738
 40
-0.151852207945606
 40
-0.122610058815004
 40
-0.0548379298616244
 40
0.0
 40
0.0
 40
0.0
 40
0.0
 10
-63.44194367516561
 20
13.78707153306683
 10
-63.32417121073874
 20
13.78707153306683
 10
-63.08419178569152
 20
13.80580234228952
 10
-62.85168098131063
 20
14.06077992123113
 10
-62.75106357115923
 20
14.3528991457025
 10
-62.73688326920373
 20
14.7669903791009
 10
-62.81190429146026
 20
15.35988989299784
 10
-63.28410391460164
 20
15.46016853306682
 10
-63.46689701414039
 20
15.46016853306682
 72
     1
 10
-63.46689701414039
 20
15.46016853306682
 11
-63.82219267516564
 21
15.46016853306682
 72
     1
 10
-63.82219267516564
 20
15.46016853306682
 11
-63.82219267516564
 21
13.78707153306683
 97
        4
330
175
330
176
330
177
330
178
 92
        1
 93
        7
 72
     1
 10
-63.09258967516566
 20
16.44881753306684
 11
-65.1910906751657
 21
16.44881753306684
 72
     1
 10
-65.1910906751657
 20
16.44881753306684
 11
-65.1910906751657
 21
10.44087653306682
 72
     1
 10
-65.1910906751657
 20
10.44087653306682
 11
-63.82219267516564
 21
10.44087653306682
 72
     1
 10
-63.82219267516564
 20
10.44087653306682
 11
-63.82219267516564
 21
12.79842253306682
 72
     1
 10
-63.82219267516564
 20
12.79842253306682
 11
-63.2280526751656
 21
12.79842253306682
 72
     4
 94
        3
 73
     0
 74
     0
 95
       10
 96
        6
 40
0.0
 40
0.0
 40
0.0
 40
0.0
 40
0.0653965997920125
 40
0.148785267001393
 40
0.2936837717354933
 40
0.2936837717354933
 40
0.2936837717354933
 40
0.2936837717354933
 10
-63.2280526751656
 20
12.79842253306682
 10
-63.00807050524145
 20
12.79414883947174
 10
-62.50758414980694
 20
12.78442566357808
 10
-61.5936272368743
 20
13.31022024821636
 10
-61.3937767031296
 20
14.13704668119749
 10
-61.3885963599133
 20
14.628373224245
 72
     4
 94
        3
 73
     0
 74
     0
 95
       11
 96
        7
 40
0.2936837717354933
 40
0.2936837717354933
 40
0.2936837717354933
 40
0.2936837717354933
 40
0.3486086586423288
 40
0.4181833865755395
 40
0.4874646771879993
 40
0.5758658507171156
 40
0.5758658507171156
 40
0.5758658507171156
 40
0.5758658507171156
 10
-61.3885963599133
 20
14.628373224245
 10
-61.3866327111799
 20
14.81461430976022
 10
-61.42180843855425
 20
15.22586839198035
 10
-61.65248502722848
 20
15.84811296147202
 10
-62.25323916657581
 20
16.38211568442156
 10
-62.79106792157026
 20
16.42485607934071
 10
-63.09258967516566
 20
16.44881753306684
 97
        7
330
179
330
17F
330
17E
330
17D
330
17C
330
17B
330
17A
 75
     0
 76
     1
 98
        1
 10
0.0
 20
0.0
450
        0
451
        0
460
0.0
461
0.0
452
        0
462
0.0
453
        0
470

  0
LINE
  5
181
102
{ACAD_REACTORS
330
18B
102
}
330
172
100
AcDbEntity
  8
0
100
AcDbLine
 10
-60.62809767516559
 20
16.44881753306684
 30
0.0
 11
-60.62809767516559
 21
10.40524878827717
 31
0.0
  0
LINE
  5
182
102
{ACAD_REACTORS
330
18B
102
}
330
172
100
AcDbEntity
  8
0
100
AcDbLine
 10
-58.98987681977541
 20
16.44881753306684
 30
0.0
 11
-60.62809767516559
 21
16.44881753306684
 31
0.0
  0
LINE
  5
183
102
{ACAD_REACTORS
330
18B
102
}
330
172
100
AcDbEntity
  8
0
100
AcDbLine
 10
-57.88930580282222
 20
12.61710582815194
 30
0.0
 11
-58.98987681977541
 21
16.44881753306684
 31
0.0
  0
LINE
  5
184
102
{ACAD_REACTORS
330
18B
102
}
330
172
100
AcDbEntity
  8
0
100
AcDbLine
 10
-57.88930580282222
 20
16.44881753306684
 30
0.0
 11
-57.88930580282222
 21
12.61710582815194
 31
0.0
  0
LINE
  5
185
102
{ACAD_REACTORS
330
18B
102
}
330
172
100
AcDbEntity
  8
0
100
AcDbLine
 10
-56.69354904308139
 20
16.44881753306684
 30
0.0
 11
-57.88930580282222
 21
16.44881753306684
 31
0.0
  0
LINE
  5
186
102
{ACAD_REACTORS
330
18B
102
}
330
172
100
AcDbEntity
  8
0
100
AcDbLine
 10
-56.69354904308139
 20
10.40524878827717
 30
0.0
 11
-56.69354904308139
 21
16.44881753306684
 31
0.0
  0
LINE
  5
187
102
{ACAD_REACTORS
330
18B
102
}
330
172
100
AcDbEntity
  8
0
100
AcDbLine
 10
-58.22507916596087
 20
10.40524878827717
 30
0.0
 11
-56.69354904308139
 21
10.40524878827717
 31
0.0
  0
LINE
  5
188
102
{ACAD_REACTORS
330
18B
102
}
330
172
100
AcDbEntity
  8
0
100
AcDbLine
 10
-59.41118327390213
 20
14.53474967794081
 30
0.0
 11
-58.22507916596087
 21
10.40524878827717
 31
0.0
  0
LINE
  5
189
102
{ACAD_REACTORS
330
18B
102
}
330
172
100
AcDbEntity
  8
0
100
AcDbLine
 10
-59.41118327390213
 20
10.40524878827717
 30
0.0
 11
-59.41118327390213
 21
14.53474967794081
 31
0.0
  0
LINE
  5
18A
102
{ACAD_REACTORS
330
18B
102
}
330
172
100
AcDbEntity
  8
0
100
AcDbLine
 10
-60.62809767516559
 20
10.40524878827717
 30
0.0
 11
-59.41118327390213
 21
10.40524878827717
 31
0.0
  0
HATCH
  5
18B
330
172
100
AcDbEntity
  8
Schraffur (ISO)
100
AcDbHatch
 10
0.0
 20
0.0
 30
0.0
210
0.0
220
0.0
230
1.0
  2
SOLID
 70
     1
 71
     1
 91
        1
 92
        1
 93
       10
 72
     1
 10
-60.62809767516559
 20
16.44881753306684
 11
-60.62809767516559
 21
10.40524878827717
 72
     1
 10
-60.62809767516559
 20
10.40524878827717
 11
-59.41118327390213
 21
10.40524878827717
 72
     1
 10
-59.41118327390213
 20
10.40524878827717
 11
-59.41118327390213
 21
14.53474967794082
 72
     1
 10
-59.41118327390213
 20
14.53474967794081
 11
-58.22507916596087
 21
10.40524878827717
 72
     1
 10
-58.22507916596087
 20
10.40524878827717
 11
-56.69354904308139
 21
10.40524878827717
 72
     1
 10
-56.69354904308139
 20
10.40524878827717
 11
-56.69354904308139
 21
16.44881753306684
 72
     1
 10
-56.69354904308139
 20
16.44881753306684
 11
-57.88930580282222
 21
16.44881753306684
 72
     1
 10
-57.88930580282222
 20
16.44881753306684
 11
-57.88930580282222
 21
12.61710582815194
 72
     1
 10
-57.88930580282222
 20
12.61710582815194
 11
-58.98987681977541
 21
16.44881753306684
 72
     1
 10
-58.98987681977541
 20
16.44881753306684
 11
-60.62809767516559
 21
16.44881753306684
 97
       10
330
181
330
18A
330
189
330
188
330
187
330
186
330
185
330
184
330
183
330
182
 75
     0
 76
     1
 98
        1
 10
0.0
 20
0.0
450
        0
451
        0
460
0.0
461
0.0
452
        0
462
0.0
453
        0
470

  0
LINE
  5
18C
102
{ACAD_REACTORS
330
198
102
}
330
172
100
AcDbEntity
  8
0
100
AcDbLine
 10
-54.3920076751656
 20
11.58162453306683
 30
0.0
 11
-52.27805867516565
 21
11.58162453306683
 31
0.0
  0
LINE
  5
18D
102
{ACAD_REACTORS
330
198
102
}
330
172
100
AcDbEntity
  8
0
100
AcDbLine
 10
-54.3920076751656
 20
12.95052253306684
 30
0.0
 11
-54.3920076751656
 21
11.58162453306683
 31
0.0
  0
LINE
  5
18E
102
{ACAD_REACTORS
330
198
102
}
330
172
100
AcDbEntity
  8
0
100
AcDbLine
 10
-52.49194867516564
 20
12.95052253306684
 30
0.0
 11
-54.3920076751656
 21
12.95052253306684
 31
0.0
  0
LINE
  5
18F
102
{ACAD_REACTORS
330
198
102
}
330
172
100
AcDbEntity
  8
0
100
AcDbLine
 10
-52.49194867516564
 20
14.09127053306683
 30
0.0
 11
-52.49194867516564
 21
12.95052253306684
 31
0.0
  0
LINE
  5
190
102
{ACAD_REACTORS
330
198
102
}
330
172
100
AcDbEntity
  8
0
100
AcDbLine
 10
-54.3920076751656
 20
14.09127053306683
 30
0.0
 11
-52.49194867516564
 21
14.09127053306683
 31
0.0
  0
LINE
  5
191
102
{ACAD_REACTORS
330
198
102
}
330
172
100
AcDbEntity
  8
0
100
AcDbLine
 10
-54.3920076751656
 20
15.30806953306683
 30
0.0
 11
-54.3920076751656
 21
14.09127053306683
 31
0.0
  0
LINE
  5
192
102
{ACAD_REACTORS
330
198
102
}
330
172
100
AcDbEntity
  8
0
100
AcDbLine
 10
-52.36836767516571
 20
15.30806953306683
 30
0.0
 11
-54.3920076751656
 21
15.30806953306683
 31
0.0
  0
LINE
  5
193
102
{ACAD_REACTORS
330
198
102
}
330
172
100
AcDbEntity
  8
0
100
AcDbLine
 10
-52.36836767516571
 20
16.44881753306684
 30
0.0
 11
-52.36836767516571
 21
15.30806953306683
 31
0.0
  0
LINE
  5
194
102
{ACAD_REACTORS
330
198
102
}
330
172
100
AcDbEntity
  8
0
100
AcDbLine
 10
-55.76090567516565
 20
16.44881753306684
 30
0.0
 11
-52.36836767516571
 21
16.44881753306684
 31
0.0
  0
LINE
  5
195
102
{ACAD_REACTORS
330
198
102
}
330
172
100
AcDbEntity
  8
0
100
AcDbLine
 10
-55.76090567516565
 20
10.44087653306682
 30
0.0
 11
-55.76090567516565
 21
16.44881753306684
 31
0.0
  0
LINE
  5
196
102
{ACAD_REACTORS
330
198
102
}
330
172
100
AcDbEntity
  8
0
100
AcDbLine
 10
-52.27805867516565
 20
10.44087653306682
 30
0.0
 11
-55.76090567516565
 21
10.44087653306682
 31
0.0
  0
LINE
  5
197
102
{ACAD_REACTORS
330
198
102
}
330
172
100
AcDbEntity
  8
0
100
AcDbLine
 10
-52.27805867516565
 20
11.58162453306683
 30
0.0
 11
-52.27805867516565
 21
10.44087653306682
 31
0.0
  0
HATCH
  5
198
330
172
100
AcDbEntity
  8
Schraffur (ISO)
100
AcDbHatch
 10
0.0
 20
0.0
 30
0.0
210
0.0
220
0.0
230
1.0
  2
SOLID
 70
     1
 71
     1
 91
        1
 92
        1
 93
       12
 72
     1
 10
-54.3920076751656
 20
11.58162453306683
 11
-52.27805867516565
 21
11.58162453306683
 72
     1
 10
-52.27805867516565
 20
11.58162453306683
 11
-52.27805867516565
 21
10.44087653306682
 72
     1
 10
-52.27805867516565
 20
10.44087653306682
 11
-55.76090567516565
 21
10.44087653306682
 72
     1
 10
-55.76090567516565
 20
10.44087653306682
 11
-55.76090567516565
 21
16.44881753306684
 72
     1
 10
-55.76090567516565
 20
16.44881753306684
 11
-52.36836767516571
 21
16.44881753306684
 72
     1
 10
-52.36836767516571
 20
16.44881753306684
 11
-52.36836767516571
 21
15.30806953306683
 72
     1
 10
-52.36836767516571
 20
15.30806953306683
 11
-54.3920076751656
 21
15.30806953306683
 72
     1
 10
-54.3920076751656
 20
15.30806953306683
 11
-54.3920076751656
 21
14.09127053306683
 72
     1
 10
-54.3920076751656
 20
14.09127053306683
 11
-52.49194867516564
 21
14.09127053306683
 72
     1
 10
-52.49194867516564
 20
14.09127053306683
 11
-52.49194867516564
 21
12.95052253306684
 72
     1
 10
-52.49194867516564
 20
12.95052253306684
 11
-54.3920076751656
 21
12.95052253306684
 72
     1
 10
-54.3920076751656
 20
12.95052253306684
 11
-54.3920076751656
 21
11.58162453306683
 97
       12
330
18C
330
197
330
196
330
195
330
194
330
193
330
192
330
191
330
190
330
18F
330
18E
330
18D
 75
     0
 76
     1
 98
        1
 10
0.0
 20
0.0
450
        0
451
        0
460
0.0
461
0.0
452
        0
462
0.0
453
        0
470

  0
SPLINE
  5
199
102
{ACAD_REACTORS
330
1A1
102
}
330
172
100
AcDbEntity
  8
0
100
AcDbSpline
210
0.0
220
0.0
230
1.0
 70
     8
 71
     3
 72
    15
 73
    11
 74
     0
 42
0.0000000001
 43
0.0000000001
 40
0.0
 40
0.0
 40
0.0
 40
0.0
 40
0.0672548563799885
 40
0.1521664902326495
 40
0.2281703146548317
 40
0.3255600897830795
 40
0.4120495207317158
 40
0.4985389234182298
 40
0.5654159866690202
 40
0.6509023544104405
 40
0.6509023544104405
 40
0.6509023544104405
 40
0.6509023544104405
 10
-51.7302616751656
 20
12.50372953306684
 30
0.0
 10
-51.72250972741318
 20
12.28042993765319
 30
0.0
 10
-51.7049706715673
 20
11.77520670867943
 30
0.0
 10
-51.45830183546912
 20
11.01272899934195
 30
0.0
 10
-50.70619437300852
 20
10.49759629449973
 30
0.0
 10
-49.8251698126684
 20
10.4107231579618
 30
0.0
 10
-48.92313273835776
 20
10.49749520180978
 30
0.0
 10
-48.18766130508738
 20
10.93968926311738
 30
0.0
 10
-47.88526518983896
 20
11.71052808496217
 30
0.0
 10
-47.86377509624168
 20
12.21864242747865
 30
0.0
 10
-47.85171767516569
 20
12.50372953306684
 30
0.0
  0
LINE
  5
19A
102
{ACAD_REACTORS
330
1A1
102
}
330
172
100
AcDbEntity
  8
0
100
AcDbLine
 10
-51.7302616751656
 20
16.44881753306684
 30
0.0
 11
-51.7302616751656
 21
12.50372953306684
 31
0.0
  0
LINE
  5
19B
102
{ACAD_REACTORS
330
1A1
102
}
330
172
100
AcDbEntity
  8
0
100
AcDbLine
 10
-50.36136367516565
 20
16.44881753306684
 30
0.0
 11
-51.7302616751656
 21
16.44881753306684
 31
0.0
  0
LINE
  5
19C
102
{ACAD_REACTORS
330
1A1
102
}
330
172
100
AcDbEntity
  8
0
100
AcDbLine
 10
-50.36136367516565
 20
12.15437597654793
 30
0.0
 11
-50.36136367516565
 21
16.44881753306684
 31
0.0
  0
SPLINE
  5
19D
102
{ACAD_REACTORS
330
1A1
102
}
330
172
100
AcDbEntity
  8
0
100
AcDbSpline
210
0.0
220
0.0
230
1.0
 70
     8
 71
     3
 72
    12
 73
     8
 74
     0
 42
0.0000000001
 43
0.0000000001
 40
0.0
 40
0.0
 40
0.0
 40
0.0
 40
0.0459373561447192
 40
0.0841298945751798
 40
0.1189845232173717
 40
0.1628560898790358
 40
0.2038542643486715
 40
0.2038542643486715
 40
0.2038542643486715
 40
0.2038542643486715
 10
-49.22061567516561
 20
12.15437553306683
 30
0.0
 10
-49.2268789446577
 20
11.99485470427934
 30
0.0
 10
-49.23834952647364
 20
11.70270749262533
 30
0.0
 10
-49.57024113653026
 20
11.41847892432864
 30
0.0
 10
-49.99594522261111
 20
11.40074526513182
 30
0.0
 10
-50.29158571586791
 20
11.73973014957667
 30
0.0
 10
-50.33863533382652
 20
12.01931596640863
 30
0.0
 10
-50.36136367516565
 20
12.15437597654793
 30
0.0
  0
LINE
  5
19E
102
{ACAD_REACTORS
330
1A1
102
}
330
172
100
AcDbEntity
  8
0
100
AcDbLine
 10
-49.22061567516561
 20
16.44881753306684
 30
0.0
 11
-49.22061567516561
 21
12.15437553306683
 31
0.0
  0
LINE
  5
19F
102
{ACAD_REACTORS
330
1A1
102
}
330
172
100
AcDbEntity
  8
0
100
AcDbLine
 10
-47.85171767516569
 20
16.44881753306684
 30
0.0
 11
-49.22061567516561
 21
16.44881753306684
 31
0.0
  0
LINE
  5
1A0
102
{ACAD_REACTORS
330
1A1
102
}
330
172
100
AcDbEntity
  8
0
100
AcDbLine
 10
-47.85171767516569
 20
12.50372953306684
 30
0.0
 11
-47.85171767516569
 21
16.44881753306684
 31
0.0
  0
HATCH
  5
1A1
330
172
100
AcDbEntity
  8
Schraffur (ISO)
100
AcDbHatch
 10
0.0
 20
0.0
 30
0.0
210
0.0
220
0.0
230
1.0
  2
SOLID
 70
     1
 71
     1
 91
        1
 92
        1
 93
        8
 72
     4
 94
        3
 73
     0
 74
     0
 95
       15
 96
       11
 40
0.0
 40
0.0
 40
0.0
 40
0.0
 40
0.0672548563799885
 40
0.1521664902326495
 40
0.2281703146548317
 40
0.3255600897830795
 40
0.4120495207317158
 40
0.4985389234182298
 40
0.5654159866690202
 40
0.6509023544104405
 40
0.6509023544104405
 40
0.6509023544104405
 40
0.6509023544104405
 10
-51.7302616751656
 20
12.50372953306684
 10
-51.72250972741318
 20
12.28042993765319
 10
-51.7049706715673
 20
11.77520670867943
 10
-51.45830183546912
 20
11.01272899934195
 10
-50.70619437300852
 20
10.49759629449973
 10
-49.8251698126684
 20
10.4107231579618
 10
-48.92313273835776
 20
10.49749520180978
 10
-48.18766130508738
 20
10.93968926311738
 10
-47.88526518983896
 20
11.71052808496217
 10
-47.86377509624168
 20
12.21864242747865
 10
-47.85171767516569
 20
12.50372953306684
 72
     1
 10
-47.85171767516569
 20
12.50372953306684
 11
-47.85171767516569
 21
16.44881753306684
 72
     1
 10
-47.85171767516569
 20
16.44881753306684
 11
-49.22061567516561
 21
16.44881753306684
 72
     1
 10
-49.22061567516561
 20
16.44881753306684
 11
-49.22061567516561
 21
12.15437553306683
 72
     4
 94
        3
 73
     0
 74
     0
 95
       12
 96
        8
 40
0.0
 40
0.0
 40
0.0
 40
0.0
 40
0.0459373561447192
 40
0.0841298945751798
 40
0.1189845232173717
 40
0.1628560898790358
 40
0.2038542643486715
 40
0.2038542643486715
 40
0.2038542643486715
 40
0.2038542643486715
 10
-49.22061567516561
 20
12.15437553306683
 10
-49.2268789446577
 20
11.99485470427934
 10
-49.23834952647364
 20
11.70270749262533
 10
-49.57024113653026
 20
11.41847892432864
 10
-49.99594522261111
 20
11.40074526513182
 10
-50.29158571586791
 20
11.73973014957667
 10
-50.33863533382652
 20
12.01931596640863
 10
-50.36136367516565
 20
12.15437597654793
 72
     1
 10
-50.36136367516565
 20
12.15437597654793
 11
-50.36136367516565
 21
16.44881753306684
 72
     1
 10
-50.36136367516565
 20
16.44881753306684
 11
-51.7302616751656
 21
16.44881753306684
 72
     1
 10
-51.7302616751656
 20
16.44881753306684
 11
-51.7302616751656
 21
12.50372953306684
 97
        8
330
199
330
1A0
330
19F
330
19E
330
19D
330
19C
330
19B
330
19A
 75
     0
 76
     1
 98
        1
 10
0.0
 20
0.0
450
        0
451
        0
460
0.0
461
0.0
452
        0
462
0.0
453
        0
470

  0
LINE
  5
1A2
102
{ACAD_REACTORS
330
1B0
102
}
330
172
100
AcDbEntity
  8
0
100
AcDbLine
 10
-44.98677667516563
 20
16.44881753306684
 30
0.0
 11
-44.26073767516562
 21
12.52868353306683
 31
0.0
  0
LINE
  5
1A3
102
{ACAD_REACTORS
330
1B0
102
}
330
172
100
AcDbEntity
  8
0
100
AcDbLine
 10
-47.01516967516568
 20
16.44881753306684
 30
0.0
 11
-44.98677667516563
 21
16.44881753306684
 31
0.0
  0
LINE
  5
1A4
102
{ACAD_REACTORS
330
1B0
102
}
330
172
100
AcDbEntity
  8
0
100
AcDbLine
 10
-47.01516967516568
 20
10.44087653306682
 30
0.0
 11
-47.01516967516568
 21
16.44881753306684
 31
0.0
  0
LINE
  5
1A5
102
{ACAD_REACTORS
330
1B0
102
}
330
172
100
AcDbEntity
  8
0
100
AcDbLine
 10
-45.79837167516565
 20
10.44087653306682
 30
0.0
 11
-47.01516967516568
 21
10.44087653306682
 31
0.0
  0
LINE
  5
1A6
102
{ACAD_REACTORS
330
1B0
102
}
330
172
100
AcDbEntity
  8
0
100
AcDbLine
 10
-45.79837167516565
 20
15.1559695330669
 30
0.0
 11
-45.79837167516565
 21
10.44087653306682
 31
0.0
  0
LINE
  5
1A7
102
{ACAD_REACTORS
330
1B0
102
}
330
172
100
AcDbEntity
  8
0
100
AcDbLine
 10
-44.83467667516558
 20
10.44087653306682
 30
0.0
 11
-45.79837167516565
 21
15.1559695330669
 31
0.0
  0
LINE
  5
1A8
102
{ACAD_REACTORS
330
1B0
102
}
330
172
100
AcDbEntity
  8
0
100
AcDbLine
 10
-43.74621267516555
 20
10.44087653306682
 30
0.0
 11
-44.83467667516558
 21
10.44087653306682
 31
0.0
  0
LINE
  5
1A9
102
{ACAD_REACTORS
330
1B0
102
}
330
172
100
AcDbEntity
  8
0
100
AcDbLine
 10
-42.83242567516563
 20
15.15596953306682
 30
0.0
 11
-43.74621267516555
 21
10.44087653306682
 31
0.0
  0
LINE
  5
1AA
102
{ACAD_REACTORS
330
1B0
102
}
330
172
100
AcDbEntity
  8
0
100
AcDbLine
 10
-42.83242567516563
 20
10.44087653306682
 30
0.0
 11
-42.83242567516563
 21
15.15596953306682
 31
0.0
  0
LINE
  5
1AB
102
{ACAD_REACTORS
330
1B0
102
}
330
172
100
AcDbEntity
  8
0
100
AcDbLine
 10
-41.53957767516555
 20
10.44087653306682
 30
0.0
 11
-42.83242567516563
 21
10.44087653306682
 31
0.0
  0
LINE
  5
1AC
102
{ACAD_REACTORS
330
1B0
102
}
330
172
100
AcDbEntity
  8
0
100
AcDbLine
 10
-41.53957767516555
 20
16.44881753306684
 30
0.0
 11
-41.53957767516555
 21
10.44087653306682
 31
0.0
  0
LINE
  5
1AD
102
{ACAD_REACTORS
330
1B0
102
}
330
172
100
AcDbEntity
  8
0
100
AcDbLine
 10
-43.54301667516562
 20
16.44881753306684
 30
0.0
 11
-41.53957767516555
 21
16.44881753306684
 31
0.0
  0
LINE
  5
1AE
102
{ACAD_REACTORS
330
1B0
102
}
330
172
100
AcDbEntity
  8
0
100
AcDbLine
 10
-44.24410167516565
 20
12.52868353306683
 30
0.0
 11
-43.54301667516562
 21
16.44881753306684
 31
0.0
  0
LINE
  5
1AF
102
{ACAD_REACTORS
330
1B0
102
}
330
172
100
AcDbEntity
  8
0
100
AcDbLine
 10
-44.26073767516562
 20
12.52868353306683
 30
0.0
 11
-44.24410167516565
 21
12.52868353306683
 31
0.0
  0
HATCH
  5
1B0
330
172
100
AcDbEntity
  8
Schraffur (ISO)
100
AcDbHatch
 10
0.0
 20
0.0
 30
0.0
210
0.0
220
0.0
230
1.0
  2
SOLID
 70
     1
 71
     1
 91
        1
 92
        1
 93
       14
 72
     1
 10
-44.98677667516563
 20
16.44881753306684
 11
-44.26073767516562
 21
12.52868353306683
 72
     1
 10
-44.26073767516562
 20
12.52868353306683
 11
-44.24410167516565
 21
12.52868353306683
 72
     1
 10
-44.24410167516565
 20
12.52868353306683
 11
-43.54301667516562
 21
16.44881753306684
 72
     1
 10
-43.54301667516562
 20
16.44881753306684
 11
-41.53957767516555
 21
16.44881753306684
 72
     1
 10
-41.53957767516555
 20
16.44881753306684
 11
-41.53957767516555
 21
10.44087653306682
 72
     1
 10
-41.53957767516555
 20
10.44087653306682
 11
-42.83242567516563
 21
10.44087653306682
 72
     1
 10
-42.83242567516563
 20
10.44087653306682
 11
-42.83242567516563
 21
15.15596953306682
 72
     1
 10
-42.83242567516563
 20
15.15596953306682
 11
-43.74621267516555
 21
10.44087653306682
 72
     1
 10
-43.74621267516555
 20
10.44087653306682
 11
-44.83467667516558
 21
10.44087653306682
 72
     1
 10
-44.83467667516558
 20
10.44087653306682
 11
-45.79837167516565
 21
15.1559695330669
 72
     1
 10
-45.79837167516565
 20
15.1559695330669
 11
-45.79837167516565
 21
10.44087653306682
 72
     1
 10
-45.79837167516565
 20
10.44087653306682
 11
-47.01516967516568
 21
10.44087653306682
 72
     1
 10
-47.01516967516568
 20
10.44087653306682
 11
-47.01516967516568
 21
16.44881753306684
 72
     1
 10
-47.01516967516568
 20
16.44881753306684
 11
-44.98677667516563
 21
16.44881753306684
 97
       14
330
1A2
330
1AF
330
1AE
330
1AD
330
1AC
330
1AB
330
1AA
330
1A9
330
1A8
330
1A7
330
1A6
330
1A5
330
1A4
330
1A3
 75
     0
 76
     1
 98
        1
 10
0.0
 20
0.0
450
        0
451
        0
460
0.0
461
0.0
452
        0
462
0.0
453
        0
470

  0
LINE
  5
1B1
102
{ACAD_REACTORS
330
1BD
102
}
330
172
100
AcDbEntity
  8
0
100
AcDbLine
 10
-39.2521406751656
 20
12.64632353306684
 30
0.0
 11
-38.24923267516571
 21
12.64632353306684
 31
0.0
  0
LINE
  5
1B2
102
{ACAD_REACTORS
330
1BD
102
}
330
172
100
AcDbEntity
  8
0
100
AcDbLine
 10
-38.24923267516571
 20
12.64632353306684
 30
0.0
 11
-38.75068667516565
 21
15.46016853306682
 31
0.0
  0
LINE
  5
1B3
102
{ACAD_REACTORS
330
1BD
102
}
330
172
100
AcDbEntity
  8
0
100
AcDbLine
 10
-38.75068667516565
 20
15.46016853306682
 30
0.0
 11
-38.76732267516559
 21
15.46016853306682
 31
0.0
  0
LINE
  5
1B4
102
{ACAD_REACTORS
330
1BD
102
}
330
172
100
AcDbEntity
  8
0
100
AcDbLine
 10
-38.76732267516559
 20
15.46016853306682
 30
0.0
 11
-39.2521406751656
 21
12.64632353306684
 31
0.0
  0
LINE
  5
1B5
102
{ACAD_REACTORS
330
1BD
102
}
330
172
100
AcDbEntity
  8
0
100
AcDbLine
 10
-37.80719267516563
 20
10.44087653306682
 30
0.0
 11
-36.36818667516561
 21
10.44087653306682
 31
0.0
  0
LINE
  5
1B6
102
{ACAD_REACTORS
330
1BD
102
}
330
172
100
AcDbEntity
  8
0
100
AcDbLine
 10
-38.02227067516558
 20
11.65767453306683
 30
0.0
 11
-37.80719267516563
 21
10.44087653306682
 31
0.0
  0
LINE
  5
1B7
102
{ACAD_REACTORS
330
1BD
102
}
330
172
100
AcDbEntity
  8
0
100
AcDbLine
 10
-39.43751167516563
 20
11.65767453306683
 30
0.0
 11
-38.02227067516558
 21
11.65767453306683
 31
0.0
  0
LINE
  5
1B8
102
{ACAD_REACTORS
330
1BD
102
}
330
172
100
AcDbEntity
  8
0
100
AcDbLine
 10
-39.64427267516566
 20
10.44087653306682
 30
0.0
 11
-39.43751167516563
 21
11.65767453306683
 31
0.0
  0
LINE
  5
1B9
102
{ACAD_REACTORS
330
1BD
102
}
330
172
100
AcDbEntity
  8
0
100
AcDbLine
 10
-41.0832786751656
 20
10.44087653306682
 30
0.0
 11
-39.64427267516566
 21
10.44087653306682
 31
0.0
  0
LINE
  5
1BA
102
{ACAD_REACTORS
330
1BD
102
}
330
172
100
AcDbEntity
  8
0
100
AcDbLine
 10
-39.57772867516564
 20
16.44881753306684
 30
0.0
 11
-41.0832786751656
 21
10.44087653306682
 31
0.0
  0
LINE
  5
1BB
102
{ACAD_REACTORS
330
1BD
102
}
330
172
100
AcDbEntity
  8
0
100
AcDbLine
 10
-37.84046467516564
 20
16.44881753306684
 30
0.0
 11
-39.57772867516564
 21
16.44881753306684
 31
0.0
  0
LINE
  5
1BC
102
{ACAD_REACTORS
330
1BD
102
}
330
172
100
AcDbEntity
  8
0
100
AcDbLine
 10
-36.36818667516561
 20
10.44087653306682
 30
0.0
 11
-37.84046467516564
 21
16.44881753306684
 31
0.0
  0
HATCH
  5
1BD
330
172
100
AcDbEntity
  8
Schraffur (ISO)
100
AcDbHatch
 10
0.0
 20
0.0
 30
0.0
210
0.0
220
0.0
230
1.0
  2
SOLID
 70
     1
 71
     1
 91
        2
 92
        0
 93
        4
 72
     1
 10
-39.2521406751656
 20
12.64632353306684
 11
-38.24923267516571
 21
12.64632353306684
 72
     1
 10
-38.24923267516571
 20
12.64632353306684
 11
-38.75068667516565
 21
15.46016853306682
 72
     1
 10
-38.75068667516565
 20
15.46016853306682
 11
-38.76732267516559
 21
15.46016853306682
 72
     1
 10
-38.76732267516559
 20
15.46016853306682
 11
-39.2521406751656
 21
12.64632353306684
 97
        4
330
1B1
330
1B2
330
1B3
330
1B4
 92
        1
 93
        8
 72
     1
 10
-37.80719267516563
 20
10.44087653306682
 11
-36.36818667516561
 21
10.44087653306682
 72
     1
 10
-36.36818667516561
 20
10.44087653306682
 11
-37.84046467516564
 21
16.44881753306684
 72
     1
 10
-37.84046467516564
 20
16.44881753306684
 11
-39.57772867516564
 21
16.44881753306684
 72
     1
 10
-39.57772867516564
 20
16.44881753306684
 11
-41.0832786751656
 21
10.44087653306682
 72
     1
 10
-41.0832786751656
 20
10.44087653306682
 11
-39.64427267516566
 21
10.44087653306682
 72
     1
 10
-39.64427267516566
 20
10.44087653306682
 11
-39.43751167516563
 21
11.65767453306683
 72
     1
 10
-39.43751167516563
 20
11.65767453306683
 11
-38.02227067516558
 21
11.65767453306683
 72
     1
 10
-38.02227067516558
 20
11.65767453306683
 11
-37.80719267516563
 21
10.44087653306682
 97
        8
330
1B5
330
1BC
330
1BB
330
1BA
330
1B9
330
1B8
330
1B7
330
1B6
 75
     0
 76
     1
 98
        1
 10
0.0
 20
0.0
450
        0
451
        0
460
0.0
461
0.0
452
        0
462
0.0
453
        0
470

  0
LINE
  5
1BE
102
{ACAD_REACTORS
330
1C6
102
}
330
172
100
AcDbEntity
  8
0
100
AcDbLine
 10
-33.7824906751656
 20
15.30806953306683
 30
0.0
 11
-33.7824906751656
 21
10.44087653306682
 31
0.0
  0
LINE
  5
1BF
102
{ACAD_REACTORS
330
1C6
102
}
330
172
100
AcDbEntity
  8
0
100
AcDbLine
 10
-32.52410267516563
 20
15.30806953306683
 30
0.0
 11
-33.7824906751656
 21
15.30806953306683
 31
0.0
  0
LINE
  5
1C0
102
{ACAD_REACTORS
330
1C6
102
}
330
172
100
AcDbEntity
  8
0
100
AcDbLine
 10
-32.52410267516563
 20
16.44881753306684
 30
0.0
 11
-32.52410267516563
 21
15.30806953306683
 31
0.0
  0
LINE
  5
1C1
102
{ACAD_REACTORS
330
1C6
102
}
330
172
100
AcDbEntity
  8
0
100
AcDbLine
 10
-36.36818667516561
 20
16.44881753306684
 30
0.0
 11
-32.52410267516563
 21
16.44881753306684
 31
0.0
  0
LINE
  5
1C2
102
{ACAD_REACTORS
330
1C6
102
}
330
172
100
AcDbEntity
  8
0
100
AcDbLine
 10
-36.36818667516561
 20
15.30806953306683
 30
0.0
 11
-36.36818667516561
 21
16.44881753306684
 31
0.0
  0
LINE
  5
1C3
102
{ACAD_REACTORS
330
1C6
102
}
330
172
100
AcDbEntity
  8
0
100
AcDbLine
 10
-35.15138767516564
 20
15.30806953306683
 30
0.0
 11
-36.36818667516561
 21
15.30806953306683
 31
0.0
  0
LINE
  5
1C4
102
{ACAD_REACTORS
330
1C6
102
}
330
172
100
AcDbEntity
  8
0
100
AcDbLine
 10
-35.15138767516564
 20
10.44087653306682
 30
0.0
 11
-35.15138767516564
 21
15.30806953306683
 31
0.0
  0
LINE
  5
1C5
102
{ACAD_REACTORS
330
1C6
102
}
330
172
100
AcDbEntity
  8
0
100
AcDbLine
 10
-33.7824906751656
 20
10.44087653306682
 30
0.0
 11
-35.15138767516564
 21
10.44087653306682
 31
0.0
  0
HATCH
  5
1C6
330
172
100
AcDbEntity
  8
Schraffur (ISO)
100
AcDbHatch
 10
0.0
 20
0.0
 30
0.0
210
0.0
220
0.0
230
1.0
  2
SOLID
 70
     1
 71
     1
 91
        1
 92
        1
 93
        8
 72
     1
 10
-33.7824906751656
 20
15.30806953306683
 11
-33.7824906751656
 21
10.44087653306682
 72
     1
 10
-33.7824906751656
 20
10.44087653306682
 11
-35.15138767516564
 21
10.44087653306682
 72
     1
 10
-35.15138767516564
 20
10.44087653306682
 11
-35.15138767516564
 21
15.30806953306683
 72
     1
 10
-35.15138767516564
 20
15.30806953306683
 11
-36.36818667516561
 21
15.30806953306683
 72
     1
 10
-36.36818667516561
 20
15.30806953306683
 11
-36.36818667516561
 21
16.44881753306684
 72
     1
 10
-36.36818667516561
 20
16.44881753306684
 11
-32.52410267516563
 21
16.44881753306684
 72
     1
 10
-32.52410267516563
 20
16.44881753306684
 11
-32.52410267516563
 21
15.30806953306683
 72
     1
 10
-32.52410267516563
 20
15.30806953306683
 11
-33.7824906751656
 21
15.30806953306683
 97
        8
330
1BE
330
1C5
330
1C4
330
1C3
330
1C2
330
1C1
330
1C0
330
1BF
 75
     0
 76
     1
 98
        1
 10
0.0
 20
0.0
450
        0
451
        0
460
0.0
461
0.0
452
        0
462
0.0
453
        0
470

  0
LINE
  5
1C7
102
{ACAD_REACTORS
330
1D3
102
}
330
172
100
AcDbEntity
  8
0
100
AcDbLine
 10
-30.66444567516566
 20
11.58162453306683
 30
0.0
 11
-28.55049667516564
 21
11.58162453306683
 31
0.0
  0
LINE
  5
1C8
102
{ACAD_REACTORS
330
1D3
102
}
330
172
100
AcDbEntity
  8
0
100
AcDbLine
 10
-30.66444567516566
 20
12.95052253306684
 30
0.0
 11
-30.66444567516566
 21
11.58162453306683
 31
0.0
  0
LINE
  5
1C9
102
{ACAD_REACTORS
330
1D3
102
}
330
172
100
AcDbEntity
  8
0
100
AcDbLine
 10
-28.76438667516563
 20
12.95052253306684
 30
0.0
 11
-30.66444567516566
 21
12.95052253306684
 31
0.0
  0
LINE
  5
1CA
102
{ACAD_REACTORS
330
1D3
102
}
330
172
100
AcDbEntity
  8
0
100
AcDbLine
 10
-28.76438667516563
 20
14.09127053306683
 30
0.0
 11
-28.76438667516563
 21
12.95052253306684
 31
0.0
  0
LINE
  5
1CB
102
{ACAD_REACTORS
330
1D3
102
}
330
172
100
AcDbEntity
  8
0
100
AcDbLine
 10
-30.66444567516566
 20
14.09127053306683
 30
0.0
 11
-28.76438667516563
 21
14.09127053306683
 31
0.0
  0
LINE
  5
1CC
102
{ACAD_REACTORS
330
1D3
102
}
330
172
100
AcDbEntity
  8
0
100
AcDbLine
 10
-30.66444567516566
 20
15.30806953306683
 30
0.0
 11
-30.66444567516566
 21
14.09127053306683
 31
0.0
  0
LINE
  5
1CD
102
{ACAD_REACTORS
330
1D3
102
}
330
172
100
AcDbEntity
  8
0
100
AcDbLine
 10
-28.6408056751657
 20
15.30806953306683
 30
0.0
 11
-30.66444567516566
 21
15.30806953306683
 31
0.0
  0
LINE
  5
1CE
102
{ACAD_REACTORS
330
1D3
102
}
330
172
100
AcDbEntity
  8
0
100
AcDbLine
 10
-28.6408056751657
 20
16.44881753306684
 30
0.0
 11
-28.6408056751657
 21
15.30806953306683
 31
0.0
  0
LINE
  5
1CF
102
{ACAD_REACTORS
330
1D3
102
}
330
172
100
AcDbEntity
  8
0
100
AcDbLine
 10
-32.03334267516563
 20
16.44881753306684
 30
0.0
 11
-28.6408056751657
 21
16.44881753306684
 31
0.0
  0
LINE
  5
1D0
102
{ACAD_REACTORS
330
1D3
102
}
330
172
100
AcDbEntity
  8
0
100
AcDbLine
 10
-32.03334267516563
 20
10.44087653306682
 30
0.0
 11
-32.03334267516563
 21
16.44881753306684
 31
0.0
  0
LINE
  5
1D1
102
{ACAD_REACTORS
330
1D3
102
}
330
172
100
AcDbEntity
  8
0
100
AcDbLine
 10
-28.55049667516564
 20
10.44087653306682
 30
0.0
 11
-32.03334267516563
 21
10.44087653306682
 31
0.0
  0
LINE
  5
1D2
102
{ACAD_REACTORS
330
1D3
102
}
330
172
100
AcDbEntity
  8
0
100
AcDbLine
 10
-28.55049667516564
 20
11.58162453306683
 30
0.0
 11
-28.55049667516564
 21
10.44087653306682
 31
0.0
  0
HATCH
  5
1D3
330
172
100
AcDbEntity
  8
Schraffur (ISO)
100
AcDbHatch
 10
0.0
 20
0.0
 30
0.0
210
0.0
220
0.0
230
1.0
  2
SOLID
 70
     1
 71
     1
 91
        1
 92
        1
 93
       12
 72
     1
 10
-30.66444567516566
 20
11.58162453306683
 11
-28.55049667516564
 21
11.58162453306683
 72
     1
 10
-28.55049667516564
 20
11.58162453306683
 11
-28.55049667516564
 21
10.44087653306682
 72
     1
 10
-28.55049667516564
 20
10.44087653306682
 11
-32.03334267516563
 21
10.44087653306682
 72
     1
 10
-32.03334267516563
 20
10.44087653306682
 11
-32.03334267516563
 21
16.44881753306684
 72
     1
 10
-32.03334267516563
 20
16.44881753306684
 11
-28.6408056751657
 21
16.44881753306684
 72
     1
 10
-28.6408056751657
 20
16.44881753306684
 11
-28.6408056751657
 21
15.30806953306683
 72
     1
 10
-28.6408056751657
 20
15.30806953306683
 11
-30.66444567516566
 21
15.30806953306683
 72
     1
 10
-30.66444567516566
 20
15.30806953306683
 11
-30.66444567516566
 21
14.09127053306683
 72
     1
 10
-30.66444567516566
 20
14.09127053306683
 11
-28.76438667516563
 21
14.09127053306683
 72
     1
 10
-28.76438667516563
 20
14.09127053306683
 11
-28.76438667516563
 21
12.95052253306684
 72
     1
 10
-28.76438667516563
 20
12.95052253306684
 11
-30.66444567516566
 21
12.95052253306684
 72
     1
 10
-30.66444567516566
 20
12.95052253306684
 11
-30.66444567516566
 21
11.58162453306683
 97
       12
330
1C7
330
1D2
330
1D1
330
1D0
330
1CF
330
1CE
330
1CD
330
1CC
330
1CB
330
1CA
330
1C9
330
1C8
 75
     0
 76
     1
 98
        1
 10
0.0
 20
0.0
450
        0
451
        0
460
0.0
461
0.0
452
        0
462
0.0
453
        0
470

  0
LINE
  5
1D4
102
{ACAD_REACTORS
330
1E1
102
}
330
172
100
AcDbEntity
  8
0
100
AcDbLine
 10
-25.43246658829611
 20
16.4546514228036
 30
0.0
 11
-23.90435631161623
 21
16.46180057898531
 31
0.0
  0
LINE
  5
1D5
102
{ACAD_REACTORS
330
1E1
102
}
330
172
100
AcDbEntity
  8
0
100
AcDbLine
 10
-26.01549057645176
 20
14.58511635645683
 30
0.0
 11
-25.43246658829611
 21
16.4546514228036
 31
0.0
  0
LINE
  5
1D6
102
{ACAD_REACTORS
330
1E1
102
}
330
172
100
AcDbEntity
  8
0
100
AcDbLine
 10
-26.03093740740494
 20
14.58504408954738
 30
0.0
 11
-26.01549057645176
 21
14.58511635645683
 31
0.0
  0
LINE
  5
1D7
102
{ACAD_REACTORS
330
1E1
102
}
330
172
100
AcDbEntity
  8
0
100
AcDbLine
 10
-26.64612930682606
 20
16.44881753306684
 30
0.0
 11
-26.03093740740494
 21
14.58504408954738
 31
0.0
  0
LINE
  5
1D8
102
{ACAD_REACTORS
330
1E1
102
}
330
172
100
AcDbEntity
  8
0
100
AcDbLine
 10
-28.16787067516568
 20
16.44881753306684
 30
0.0
 11
-26.64612930682606
 21
16.44881753306684
 31
0.0
  0
LINE
  5
1D9
102
{ACAD_REACTORS
330
1E1
102
}
330
172
100
AcDbEntity
  8
0
100
AcDbLine
 10
-26.87026967516569
 20
13.49475453306683
 30
0.0
 11
-28.16787067516568
 21
16.44881753306684
 31
0.0
  0
LINE
  5
1DA
102
{ACAD_REACTORS
330
1E1
102
}
330
172
100
AcDbEntity
  8
0
100
AcDbLine
 10
-28.30689867516558
 20
10.44087653306682
 30
0.0
 11
-26.87026967516569
 21
13.49475453306683
 31
0.0
  0
LINE
  5
1DB
102
{ACAD_REACTORS
330
1E1
102
}
330
172
100
AcDbEntity
  8
0
100
AcDbLine
 10
-26.78946667516559
 20
10.44087653306682
 30
0.0
 11
-28.30689867516558
 21
10.44087653306682
 31
0.0
  0
LINE
  5
1DC
102
{ACAD_REACTORS
330
1E1
102
}
330
172
100
AcDbEntity
  8
0
100
AcDbLine
 10
-26.0800636751657
 20
12.44669253306682
 30
0.0
 11
-26.78946667516559
 21
10.44087653306682
 31
0.0
  0
LINE
  5
1DD
102
{ACAD_REACTORS
330
1E1
102
}
330
172
100
AcDbEntity
  8
0
100
AcDbLine
 10
-25.52255357088104
 20
10.44087653306682
 30
0.0
 11
-26.0800636751657
 21
12.44669253306682
 31
0.0
  0
LINE
  5
1DE
102
{ACAD_REACTORS
330
1E1
102
}
330
172
100
AcDbEntity
  8
0
100
AcDbLine
 10
-23.91733373362687
 20
10.44087653306682
 30
0.0
 11
-25.52255357088104
 21
10.44087653306682
 31
0.0
  0
LINE
  5
1DF
102
{ACAD_REACTORS
330
1E1
102
}
330
172
100
AcDbEntity
  8
0
100
AcDbLine
 10
-25.16745525516015
 20
13.49429112836466
 30
0.0
 11
-23.91733373362687
 21
10.44087653306682
 31
0.0
  0
LINE
  5
1E0
102
{ACAD_REACTORS
330
1E1
102
}
330
172
100
AcDbEntity
  8
0
100
AcDbLine
 10
-23.90435631161623
 20
16.46180057898531
 30
0.0
 11
-25.16745525516015
 21
13.49429112836466
 31
0.0
  0
HATCH
  5
1E1
330
172
100
AcDbEntity
  8
Schraffur (ISO)
100
AcDbHatch
 10
0.0
 20
0.0
 30
0.0
210
0.0
220
0.0
230
1.0
  2
SOLID
 70
     1
 71
     1
 91
        1
 92
        1
 93
       13
 72
     1
 10
-25.43246658829611
 20
16.4546514228036
 11
-23.90435631161623
 21
16.46180057898531
 72
     1
 10
-23.90435631161623
 20
16.46180057898531
 11
-25.16745525516015
 21
13.49429112836467
 72
     1
 10
-25.16745525516015
 20
13.49429112836466
 11
-23.91733373362687
 21
10.44087653306682
 72
     1
 10
-23.91733373362687
 20
10.44087653306682
 11
-25.52255357088104
 21
10.44087653306682
 72
     1
 10
-25.52255357088104
 20
10.44087653306682
 11
-26.0800636751657
 21
12.44669253306682
 72
     1
 10
-26.0800636751657
 20
12.44669253306682
 11
-26.78946667516559
 21
10.44087653306682
 72
     1
 10
-26.78946667516559
 20
10.44087653306682
 11
-28.30689867516558
 21
10.44087653306682
 72
     1
 10
-28.30689867516558
 20
10.44087653306682
 11
-26.87026967516569
 21
13.49475453306683
 72
     1
 10
-26.87026967516569
 20
13.49475453306683
 11
-28.16787067516568
 21
16.44881753306684
 72
     1
 10
-28.16787067516568
 20
16.44881753306684
 11
-26.64612930682606
 21
16.44881753306684
 72
     1
 10
-26.64612930682606
 20
16.44881753306684
 11
-26.03093740740494
 21
14.58504408954738
 72
     1
 10
-26.03093740740494
 20
14.58504408954738
 11
-26.01549057645176
 21
14.58511635645683
 72
     1
 10
-26.01549057645176
 20
14.58511635645683
 11
-25.43246658829611
 21
16.4546514228036
 97
       13
330
1D4
330
1E0
330
1DF
330
1DE
330
1DD
330
1DC
330
1DB
330
1DA
330
1D9
330
1D8
330
1D7
330
1D6
330
1D5
 75
     0
 76
     1
 98
        1
 10
0.0
 20
0.0
450
        0
451
        0
460
0.0
461
0.0
452
        0
462
0.0
453
        0
470

  0
LINE
  5
1E2
330
172
100
AcDbEntity
  8
Skizziergeometrie (ISO)
100
AcDbLine
 10
-66.74197817516563
 20
0.2208965330668366
 30
0.0
 11
-53.44197817516562
 21
0.2208965330668366
 31
0.0
  0
LINE
  5
1E3
330
172
100
AcDbEntity
  8
Skizziergeometrie (ISO)
100
AcDbLine
 10
-53.44197817516562
 20
0.2208965330668366
 30
0.0
 11
-53.44197817516562
 21
13.52089653306683
 31
0.0
  0
LINE
  5
1E4
330
172
100
AcDbEntity
  8
Skizziergeometrie (ISO)
100
AcDbLine
 10
-53.44197817516562
 20
13.52089653306683
 30
0.0
 11
-66.74197817516563
 21
13.52089653306683
 31
0.0
  0
LINE
  5
1E5
330
172
100
AcDbEntity
  8
Skizziergeometrie (ISO)
100
AcDbLine
 10
-66.74197817516563
 20
13.52089653306683
 30
0.0
 11
-66.74197817516563
 21
0.2208965330668366
 31
0.0
  0
LINE
  5
1E6
330
172
100
AcDbEntity
  8
Skizziergeometrie (ISO)
100
AcDbLine
 10
-74.30834701753944
 20
20.17089653306684
 30
0.0
 11
-61.00834701753945
 21
20.17089653306684
 31
0.0
  0
LINE
  5
1E7
330
172
100
AcDbEntity
  8
Skizziergeometrie (ISO)
100
AcDbLine
 10
-61.00834701753945
 20
20.17089653306684
 30
0.0
 11
-61.00834701753945
 21
6.870896533066837
 31
0.0
  0
LINE
  5
1E8
330
172
100
AcDbEntity
  8
Skizziergeometrie (ISO)
100
AcDbLine
 10
-61.00834701753945
 20
6.870896533066837
 30
0.0
 11
-74.30834701753944
 21
6.870896533066837
 31
0.0
  0
LINE
  5
1E9
330
172
100
AcDbEntity
  8
Skizziergeometrie (ISO)
100
AcDbLine
 10
-74.30834701753944
 20
6.870896533066837
 30
0.0
 11
-74.30834701753944
 21
20.17089653306684
 31
0.0
  0
LINE
  5
1EA
330
172
100
AcDbEntity
  8
Skizziergeometrie (ISO)
100
AcDbLine
 10
-49.79098967516563
 20
25.34881753306685
 30
0.0
 11
-36.49098967516564
 21
25.34881753306685
 31
0.0
  0
LINE
  5
1EB
330
172
100
AcDbEntity
  8
Skizziergeometrie (ISO)
100
AcDbLine
 10
-36.49098967516564
 20
25.34881753306685
 30
0.0
 11
-36.49098967516564
 21
12.04881753306685
 31
0.0
  0
LINE
  5
1EC
330
172
100
AcDbEntity
  8
Skizziergeometrie (ISO)
100
AcDbLine
 10
-36.49098967516564
 20
12.04881753306685
 30
0.0
 11
-49.79098967516563
 21
12.04881753306685
 31
0.0
  0
LINE
  5
1ED
330
172
100
AcDbEntity
  8
Skizziergeometrie (ISO)
100
AcDbLine
 10
-49.79098967516563
 20
12.04881753306685
 30
0.0
 11
-49.79098967516563
 21
25.34881753306685
 31
0.0
  0
MTEXT
  5
1EE
330
172
100
AcDbEntity
  8
Titel (ISO)
100
AcDbMText
 10
-23.23075129610368
 20
16.30481426074307
 30
0.0
 40
2.5
 41
0.0
 46
0.0
 71
     4
 72
     1
  1
\fAIGDT|b0|i0;\H2.5000;\}
  7
Notiztext (DIN)
 73
     1
 44
1.0
  0
ENDBLK
  5
174
330
172
100
AcDbEntity
  8
0
100
AcDbBlockEnd
  0
BLOCK
  5
1F0
330
1EF
100
AcDbEntity
  8
0
100
AcDbBlockBegin
  2
P gross
 70
     0
 10
0.0
 20
0.0
 30
0.0
  3
P gross
  1

  0
LINE
  5
1F2
102
{ACAD_REACTORS
330
200
102
}
330
1EF
100
AcDbEntity
  8
0
100
AcDbLine
 10
8.769225522167296
 20
4.689310313762291
 30
0.0
 11
7.981577449080567
 21
4.689310313762327
 31
0.0
  0
LINE
  5
1F3
102
{ACAD_REACTORS
330
200
102
}
330
1EF
100
AcDbEntity
  8
0
100
AcDbLine
 10
7.981577449080567
 20
4.689310313762327
 30
0.0
 11
7.981577449080567
 21
0.7845927762325644
 31
0.0
  0
LINE
  5
1F4
102
{ACAD_REACTORS
330
200
102
}
330
1EF
100
AcDbEntity
  8
0
100
AcDbLine
 10
7.981577449080567
 20
0.7845927762325644
 30
0.0
 11
8.769225522167296
 21
0.7845927762325644
 31
0.0
  0
ARC
  5
1F5
102
{ACAD_REACTORS
330
200
102
}
330
1EF
100
AcDbEntity
  8
0
100
AcDbCircle
 10
8.769225522167296
 20
2.284592776232585
 30
0.0
 40
1.5
100
AcDbArc
 50
270.0
 51
0.0
  0
LINE
  5
1F6
102
{ACAD_REACTORS
330
200
102
}
330
1EF
100
AcDbEntity
  8
0
100
AcDbLine
 10
10.26922552216724
 20
2.284592776232585
 30
0.0
 11
10.26922552216728
 21
3.189310313762341
 31
0.0
  0
ARC
  5
1F7
102
{ACAD_REACTORS
330
200
102
}
330
1EF
100
AcDbEntity
  8
0
100
AcDbCircle
 10
8.769225522167296
 20
3.189310313762341
 30
0.0
 40
1.5
100
AcDbArc
 50
0.0
 51
90.0
  0
LINE
  5
1F8
102
{ACAD_REACTORS
330
200
102
}
330
1EF
100
AcDbEntity
  8
0
100
AcDbLine
 10
4.481577449080553
 20
7.033965470643472
 30
0.0
 11
4.481577449080553
 21
-7.033965470643472
 31
0.0
  0
LINE
  5
1F9
102
{ACAD_REACTORS
330
200
102
}
330
1EF
100
AcDbEntity
  8
0
100
AcDbLine
 10
9.557661927330194
 20
7.033965470643472
 30
0.0
 11
4.481577449080553
 21
7.033965470643472
 31
0.0
  0
ARC
  5
1FA
102
{ACAD_REACTORS
330
200
102
}
330
1EF
100
AcDbEntity
  8
0
100
AcDbCircle
 10
9.557661927330194
 20
3.033965470643487
 30
0.0
 40
4.0
100
AcDbArc
 50
0.0
 51
90.0
  0
LINE
  5
1FB
102
{ACAD_REACTORS
330
200
102
}
330
1EF
100
AcDbEntity
  8
0
100
AcDbLine
 10
13.55766192733018
 20
2.439937619351439
 30
0.0
 11
13.55766192733018
 21
3.033965470643487
 31
0.0
  0
ARC
  5
1FC
102
{ACAD_REACTORS
330
200
102
}
330
1EF
100
AcDbEntity
  8
0
100
AcDbCircle
 10
9.557661927330194
 20
2.439937619351439
 30
0.0
 40
4.0
100
AcDbArc
 50
270.0
 51
0.0
  0
LINE
  5
1FD
102
{ACAD_REACTORS
330
200
102
}
330
1EF
100
AcDbEntity
  8
0
100
AcDbLine
 10
7.981577449080603
 20
-1.560062380648581
 30
0.0
 11
9.557661927330194
 21
-1.560062380648581
 31
0.0
  0
LINE
  5
1FE
102
{ACAD_REACTORS
330
200
102
}
330
1EF
100
AcDbEntity
  8
0
100
AcDbLine
 10
7.981577449080567
 20
-7.033965470643508
 30
0.0
 11
7.981577449080603
 21
-1.560062380648581
 31
0.0
  0
LINE
  5
1FF
102
{ACAD_REACTORS
330
200
102
}
330
1EF
100
AcDbEntity
  8
0
100
AcDbLine
 10
4.481577449080553
 20
-7.033965470643472
 30
0.0
 11
7.981577449080567
 21
-7.033965470643508
 31
0.0
  0
HATCH
  5
200
330
1EF
100
AcDbEntity
  8
Schraffur (ISO)
100
AcDbHatch
 10
0.0
 20
0.0
 30
0.0
210
0.0
220
0.0
230
1.0
  2
SOLID
 70
     1
 71
     1
 91
        2
 92
        0
 93
        6
 72
     1
 10
8.769225522167296
 20
4.689310313762291
 11
7.981577449080567
 21
4.689310313762327
 72
     1
 10
7.981577449080567
 20
4.689310313762327
 11
7.981577449080567
 21
0.7845927762325644
 72
     1
 10
7.981577449080567
 20
0.7845927762325644
 11
8.769225522167296
 21
0.7845927762325644
 72
     2
 10
8.769225522167296
 20
2.284592776232585
 40
1.5
 50
270.0
 51
360.0
 73
     1
 72
     1
 10
10.26922552216724
 20
2.284592776232585
 11
10.26922552216728
 21
3.189310313762341
 72
     2
 10
8.769225522167296
 20
3.189310313762341
 40
1.5
 50
0.0
 51
90.0
 73
     1
 97
        6
330
1F2
330
1F3
330
1F4
330
1F5
330
1F6
330
1F7
 92
        1
 93
        8
 72
     1
 10
4.481577449080553
 20
7.033965470643472
 11
4.481577449080553
 21
-7.033965470643472
 72
     1
 10
4.481577449080553
 20
-7.033965470643472
 11
7.981577449080567
 21
-7.033965470643508
 72
     1
 10
7.981577449080567
 20
-7.033965470643508
 11
7.981577449080603
 21
-1.560062380648581
 72
     1
 10
7.981577449080603
 20
-1.560062380648581
 11
9.557661927330194
 21
-1.560062380648581
 72
     2
 10
9.557661927330194
 20
2.439937619351439
 40
4.0
 50
270.0
 51
360.0
 73
     1
 72
     1
 10
13.55766192733018
 20
2.439937619351439
 11
13.55766192733018
 21
3.033965470643487
 72
     2
 10
9.557661927330194
 20
3.033965470643487
 40
4.0
 50
0.0
 51
90.0
 73
     1
 72
     1
 10
9.557661927330194
 20
7.033965470643472
 11
4.481577449080553
 21
7.033965470643472
 97
        8
330
1F8
330
1FF
330
1FE
330
1FD
330
1FC
330
1FB
330
1FA
330
1F9
 75
     0
 76
     1
 98
        1
 10
0.0
 20
0.0
450
        0
451
        0
460
0.0
461
0.0
452
        0
462
0.0
453
        0
470

  0
LINE
  5
201
330
1EF
100
AcDbEntity
  8
Skizziergeometrie (ISO)
100
AcDbLine
 10
-13.99999999999998
 20
14.00746616799352
 30
0.0
 11
14.00000000000002
 21
14.00746616799352
 31
0.0
  0
LINE
  5
202
330
1EF
100
AcDbEntity
  8
Skizziergeometrie (ISO)
100
AcDbLine
 10
14.00000000000002
 20
14.00746616799352
 30
0.0
 11
14.00000000000002
 21
-14.00746616799352
 31
0.0
  0
LINE
  5
203
330
1EF
100
AcDbEntity
  8
Skizziergeometrie (ISO)
100
AcDbLine
 10
14.00000000000002
 20
-14.00746616799352
 30
0.0
 11
-13.99999999999998
 21
-14.00746616799352
 31
0.0
  0
LINE
  5
204
330
1EF
100
AcDbEntity
  8
Skizziergeometrie (ISO)
100
AcDbLine
 10
-13.99999999999998
 20
-14.00746616799352
 30
0.0
 11
-13.99999999999998
 21
14.00746616799352
 31
0.0
  0
LINE
  5
205
330
1EF
100
AcDbEntity
  8
Skizziergeometrie (ISO)
100
AcDbLine
 10
4.481577449080553
 20
7.033965470643472
 30
0.0
 11
4.481577449080553
 21
-7.033965470643472
 31
0.0
  0
LINE
  5
206
330
1EF
100
AcDbEntity
  8
Skizziergeometrie (ISO)
100
AcDbLine
 10
4.481577449080553
 20
-7.033965470643472
 30
0.0
 11
7.981577449080567
 21
-7.033965470643508
 31
0.0
  0
LINE
  5
207
330
1EF
100
AcDbEntity
  8
Skizziergeometrie (ISO)
100
AcDbLine
 10
7.981577449080567
 20
-7.033965470643508
 30
0.0
 11
7.981577449080603
 21
-1.560062380648581
 31
0.0
  0
LINE
  5
208
330
1EF
100
AcDbEntity
  8
Skizziergeometrie (ISO)
100
AcDbLine
 10
7.981577449080603
 20
-1.560062380648581
 30
0.0
 11
9.557661927330194
 21
-1.560062380648581
 31
0.0
  0
LINE
  5
209
330
1EF
100
AcDbEntity
  8
Skizziergeometrie (ISO)
100
AcDbLine
 10
9.557661927330194
 20
7.033965470643472
 30
0.0
 11
4.481577449080553
 21
7.033965470643472
 31
0.0
  0
ARC
  5
20A
330
1EF
100
AcDbEntity
  8
Skizziergeometrie (ISO)
100
AcDbCircle
 10
9.557661927330194
 20
2.439937619351439
 30
0.0
 40
4.0
100
AcDbArc
 50
270.0
 51
0.0
  0
LINE
  5
20B
330
1EF
100
AcDbEntity
  8
Skizziergeometrie (ISO)
100
AcDbLine
 10
13.55766192733018
 20
2.439937619351439
 30
0.0
 11
13.55766192733018
 21
3.033965470643487
 31
0.0
  0
ARC
  5
20C
330
1EF
100
AcDbEntity
  8
Skizziergeometrie (ISO)
100
AcDbCircle
 10
9.557661927330194
 20
3.033965470643487
 30
0.0
 40
4.0
100
AcDbArc
 50
0.0
 51
90.0
  0
LINE
  5
20D
330
1EF
100
AcDbEntity
  8
Skizziergeometrie (ISO)
100
AcDbLine
 10
7.981577449080567
 20
0.7845927762325644
 30
0.0
 11
7.981577449080567
 21
4.689310313762327
 31
0.0
  0
LINE
  5
20E
330
1EF
100
AcDbEntity
  8
Skizziergeometrie (ISO)
100
AcDbLine
 10
7.981577449080567
 20
4.689310313762327
 30
0.0
 11
8.769225522167296
 21
4.689310313762291
 31
0.0
  0
ARC
  5
20F
330
1EF
100
AcDbEntity
  8
Skizziergeometrie (ISO)
100
AcDbCircle
 10
8.769225522167296
 20
3.189310313762341
 30
0.0
 40
1.5
100
AcDbArc
 50
0.0
 51
90.0
  0
LINE
  5
210
330
1EF
100
AcDbEntity
  8
Skizziergeometrie (ISO)
100
AcDbLine
 10
10.26922552216728
 20
3.189310313762341
 30
0.0
 11
10.26922552216724
 21
2.284592776232585
 31
0.0
  0
ARC
  5
211
330
1EF
100
AcDbEntity
  8
Skizziergeometrie (ISO)
100
AcDbCircle
 10
8.769225522167296
 20
2.284592776232585
 30
0.0
 40
1.5
100
AcDbArc
 50
270.0
 51
0.0
  0
LINE
  5
212
330
1EF
100
AcDbEntity
  8
Skizziergeometrie (ISO)
100
AcDbLine
 10
8.769225522167296
 20
0.7845927762325644
 30
0.0
 11
7.981577449080567
 21
0.7845927762325644
 31
0.0
  0
ENDBLK
  5
1F1
330
1EF
100
AcDbEntity
  8
0
100
AcDbBlockEnd
  0
ENDSEC
  0
SECTION
  2
ENTITIES
  0
LINE
  5
213
330
75
100
AcDbEntity
  8
Sichtbar (ISO)
100
AcDbLine
 10
434.3234878295724
 20
739.5028091337032
 30
0.0
 11
401.3234878295724
 21
739.5028091337032
 31
0.0
  0
LINE
  5
214
330
75
100
AcDbEntity
  8
Sichtbar (ISO)
100
AcDbLine
 10
401.8234878295723
 20
740.0028091337031
 30
0.0
 11
433.8234878295724
 21
740.0028091337031
 31
0.0
  0
LINE
  5
215
330
75
100
AcDbEntity
  8
Sichtbar (ISO)
100
AcDbLine
 10
433.8234878295724
 20
740.0028091337031
 30
0.0
 11
434.3234878295724
 21
739.5028091337032
 31
0.0
  0
LINE
  5
216
330
75
100
AcDbEntity
  8
Sichtbar (ISO)
100
AcDbLine
 10
401.8234878295725
 20
740.0028091337031
 30
0.0
 11
401.3234878295724
 21
739.5028091337032
 31
0.0
  0
POLYLINE
  5
217
330
75
100
AcDbEntity
  8
Sichtbar (ISO)
100
AcDb2dPolyline
 66
     1
 10
0.0
 20
0.0
 30
0.0
 70
   128
  0
VERTEX
  5
218
330
217
100
AcDbEntity
  8
Sichtbar (ISO)
100
AcDbVertex
100
AcDb2dVertex
 10
411.8234890381605
 20
294.5028093830107
 30
0.0
  0
VERTEX
  5
219
330
217
100
AcDbEntity
  8
Sichtbar (ISO)
100
AcDbVertex
100
AcDb2dVertex
 10
411.8078916947157
 20
294.8031601682662
 30
0.0
  0
VERTEX
  5
21B
330
217
100
AcDbEntity
  8
Sichtbar (ISO)
100
AcDbVertex
100
AcDb2dVertex
 10
411.7612379471571
 20
295.1066044345854
 30
0.0
  0
VERTEX
  5
21C
330
217
100
AcDbEntity
  8
Sichtbar (ISO)
100
AcDbVertex
100
AcDb2dVertex
 10
411.6837328354629
 20
295.4066434875487
 30
0.0
  0
VERTEX
  5
21D
330
217
100
AcDbEntity
  8
Sichtbar (ISO)
100
AcDbVertex
100
AcDb2dVertex
 10
411.5756052414687
 20
295.6967816129683
 30
0.0
  0
VERTEX
  5
21E
330
217
100
AcDbEntity
  8
Sichtbar (ISO)
100
AcDbVertex
100
AcDb2dVertex
 10
411.4387768189223
 20
295.9712872282027
 30
0.0
  0
VERTEX
  5
21F
330
217
100
AcDbEntity
  8
Sichtbar (ISO)
100
AcDbVertex
100
AcDb2dVertex
 10
411.2783211151869
 20
296.2259647623061
 30
0.0
  0
VERTEX
  5
220
330
217
100
AcDbEntity
  8
Sichtbar (ISO)
100
AcDbVertex
100
AcDb2dVertex
 10
411.0996311585219
 20
296.4568052068709
 30
0.0
  0
VERTEX
  5
221
330
217
100
AcDbEntity
  8
Sichtbar (ISO)
100
AcDbVertex
100
AcDb2dVertex
 10
410.9067171494277
 20
296.6613582149504
 30
0.0
  0
VERTEX
  5
222
330
217
100
AcDbEntity
  8
Sichtbar (ISO)
100
AcDbVertex
100
AcDb2dVertex
 10
410.6957310120376
 20
296.8459746614455
 30
0.0
  0
VERTEX
  5
223
330
217
100
AcDbEntity
  8
Sichtbar (ISO)
100
AcDbVertex
100
AcDb2dVertex
 10
410.4688089768202
 20
297.0102945343016
 30
0.0
  0
VERTEX
  5
224
330
217
100
AcDbEntity
  8
Sichtbar (ISO)
100
AcDbVertex
100
AcDb2dVertex
 10
410.2294557968886
 20
297.1524134651183
 30
0.0
  0
VERTEX
  5
225
330
217
100
AcDbEntity
  8
Sichtbar (ISO)
100
AcDbVertex
100
AcDb2dVertex
 10
409.9811952988417
 20
297.2704252973555
 30
0.0
  0
VERTEX
  5
226
330
217
100
AcDbEntity
  8
Sichtbar (ISO)
100
AcDbVertex
100
AcDb2dVertex
 10
409.7276752869399
 20
297.3629966751097
 30
0.0
  0
VERTEX
  5
227
330
217
100
AcDbEntity
  8
Sichtbar (ISO)
100
AcDbVertex
100
AcDb2dVertex
 10
409.4727629105361
 20
297.4310073629378
 30
0.0
  0
VERTEX
  5
228
330
217
100
AcDbEntity
  8
Sichtbar (ISO)
100
AcDbVertex
100
AcDb2dVertex
 10
409.2202347199233
 20
297.4758384004592
 30
0.0
  0
VERTEX
  5
229
330
217
100
AcDbEntity
  8
Sichtbar (ISO)
100
AcDbVertex
100
AcDb2dVertex
 10
408.9738672653945
 20
297.4988702312468
 30
0.0
  0
VERTEX
  5
22A
330
217
100
AcDbEntity
  8
Sichtbar (ISO)
100
AcDbVertex
100
AcDb2dVertex
 10
408.7364214340956
 20
297.5015017763137
 30
0.0
  0
VERTEX
  5
22B
330
217
100
AcDbEntity
  8
Sichtbar (ISO)
100
AcDbVertex
100
AcDb2dVertex
 10
408.5002869049819
 20
297.4849632755278
 30
0.0
  0
VERTEX
  5
22C
330
217
100
AcDbEntity
  8
Sichtbar (ISO)
100
AcDbVertex
100
AcDb2dVertex
 10
408.2646959702285
 20
297.4496516958236
 30
0.0
  0
VERTEX
  5
22D
330
217
100
AcDbEntity
  8
Sichtbar (ISO)
100
AcDbVertex
100
AcDb2dVertex
 10
408.0317085663589
 20
297.3958352581023
 30
0.0
  0
VERTEX
  5
22E
330
217
100
AcDbEntity
  8
Sichtbar (ISO)
100
AcDbVertex
100
AcDb2dVertex
 10
407.8033798615249
 20
297.3237833753584
 30
0.0
  0
VERTEX
  5
22F
330
217
100
AcDbEntity
  8
Sichtbar (ISO)
100
AcDbVertex
100
AcDb2dVertex
 10
407.5817650238784
 20
297.2337666526793
 30
0.0
  0
VERTEX
  5
230
330
217
100
AcDbEntity
  8
Sichtbar (ISO)
100
AcDbVertex
100
AcDb2dVertex
 10
407.3687094132216
 20
297.1263358369826
 30
0.0
  0
VERTEX
  5
231
330
217
100
AcDbEntity
  8
Sichtbar (ISO)
100
AcDbVertex
100
AcDb2dVertex
 10
407.1654385010512
 20
297.0026252046584
 30
0.0
  0
SEQEND
  5
21A
330
217
100
AcDbEntity
  8
Sichtbar (ISO)
  0
POLYLINE
  5
232
330
75
100
AcDbEntity
  8
Sichtbar (ISO)
100
AcDb2dPolyline
 66
     1
 10
0.0
 20
0.0
 30
0.0
 70
   128
  0
VERTEX
  5
233
330
232
100
AcDbEntity
  8
Sichtbar (ISO)
100
AcDbVertex
100
AcDb2dVertex
 10
407.1654385010512
 20
292.0029932633399
 30
0.0
  0
VERTEX
  5
234
330
232
100
AcDbEntity
  8
Sichtbar (ISO)
100
AcDbVertex
100
AcDb2dVertex
 10
407.3687094132216
 20
291.8792826310157
 30
0.0
  0
VERTEX
  5
236
330
232
100
AcDbEntity
  8
Sichtbar (ISO)
100
AcDbVertex
100
AcDb2dVertex
 10
407.5817650238784
 20
291.771851815319
 30
0.0
  0
VERTEX
  5
237
330
232
100
AcDbEntity
  8
Sichtbar (ISO)
100
AcDbVertex
100
AcDb2dVertex
 10
407.8033798615249
 20
291.6818347946166
 30
0.0
  0
VERTEX
  5
238
330
232
100
AcDbEntity
  8
Sichtbar (ISO)
100
AcDbVertex
100
AcDb2dVertex
 10
408.0317085663589
 20
291.609783209896
 30
0.0
  0
VERTEX
  5
239
330
232
100
AcDbEntity
  8
Sichtbar (ISO)
100
AcDbVertex
100
AcDb2dVertex
 10
408.2646959702285
 20
291.5559667721747
 30
0.0
  0
VERTEX
  5
23A
330
232
100
AcDbEntity
  8
Sichtbar (ISO)
100
AcDbVertex
100
AcDb2dVertex
 10
408.5002869049819
 20
291.5206548944472
 30
0.0
  0
VERTEX
  5
23B
330
232
100
AcDbEntity
  8
Sichtbar (ISO)
100
AcDbVertex
100
AcDb2dVertex
 10
408.7364214340956
 20
291.5041163936614
 30
0.0
  0
VERTEX
  5
23C
330
232
100
AcDbEntity
  8
Sichtbar (ISO)
100
AcDbVertex
100
AcDb2dVertex
 10
408.9738672653945
 20
291.506747640705
 30
0.0
  0
VERTEX
  5
23D
330
232
100
AcDbEntity
  8
Sichtbar (ISO)
100
AcDbVertex
100
AcDb2dVertex
 10
409.2202347199233
 20
291.5297797695158
 30
0.0
  0
VERTEX
  5
23E
330
232
100
AcDbEntity
  8
Sichtbar (ISO)
100
AcDbVertex
100
AcDb2dVertex
 10
409.4727629105361
 20
291.5746108070372
 30
0.0
  0
VERTEX
  5
23F
330
232
100
AcDbEntity
  8
Sichtbar (ISO)
100
AcDbVertex
100
AcDb2dVertex
 10
409.7276752869399
 20
291.6426217928885
 30
0.0
  0
VERTEX
  5
240
330
232
100
AcDbEntity
  8
Sichtbar (ISO)
100
AcDbVertex
100
AcDb2dVertex
 10
409.9811952988417
 20
291.7351931706427
 30
0.0
  0
VERTEX
  5
241
330
232
100
AcDbEntity
  8
Sichtbar (ISO)
100
AcDbVertex
100
AcDb2dVertex
 10
410.2294557968886
 20
291.85320500288
 30
0.0
  0
VERTEX
  5
242
330
232
100
AcDbEntity
  8
Sichtbar (ISO)
100
AcDbVertex
100
AcDb2dVertex
 10
410.4688089768202
 20
291.9953236356734
 30
0.0
  0
VERTEX
  5
243
330
232
100
AcDbEntity
  8
Sichtbar (ISO)
100
AcDbVertex
100
AcDb2dVertex
 10
410.6957310120376
 20
292.1596435085295
 30
0.0
  0
VERTEX
  5
244
330
232
100
AcDbEntity
  8
Sichtbar (ISO)
100
AcDbVertex
100
AcDb2dVertex
 10
410.9067171494277
 20
292.3442602530478
 30
0.0
  0
VERTEX
  5
245
330
232
100
AcDbEntity
  8
Sichtbar (ISO)
100
AcDbVertex
100
AcDb2dVertex
 10
411.0996311585219
 20
292.5488129631041
 30
0.0
  0
VERTEX
  5
246
330
232
100
AcDbEntity
  8
Sichtbar (ISO)
100
AcDbVertex
100
AcDb2dVertex
 10
411.2783211151869
 20
292.7796537056922
 30
0.0
  0
VERTEX
  5
247
330
232
100
AcDbEntity
  8
Sichtbar (ISO)
100
AcDbVertex
100
AcDb2dVertex
 10
411.4387768189223
 20
293.0343312397956
 30
0.0
  0
VERTEX
  5
248
330
232
100
AcDbEntity
  8
Sichtbar (ISO)
100
AcDbVertex
100
AcDb2dVertex
 10
411.5756052414687
 20
293.3088365570067
 30
0.0
  0
VERTEX
  5
249
330
232
100
AcDbEntity
  8
Sichtbar (ISO)
100
AcDbVertex
100
AcDb2dVertex
 10
411.6837328354629
 20
293.5989749804496
 30
0.0
  0
VERTEX
  5
24A
330
232
100
AcDbEntity
  8
Sichtbar (ISO)
100
AcDbVertex
100
AcDb2dVertex
 10
411.7612379471571
 20
293.8990137353896
 30
0.0
  0
VERTEX
  5
24B
330
232
100
AcDbEntity
  8
Sichtbar (ISO)
100
AcDbVertex
100
AcDb2dVertex
 10
411.8078916947157
 20
294.2024580017088
 30
0.0
  0
VERTEX
  5
24C
330
232
100
AcDbEntity
  8
Sichtbar (ISO)
100
AcDbVertex
100
AcDb2dVertex
 10
411.8234890381605
 20
294.5028093830107
 30
0.0
  0
SEQEND
  5
235
330
232
100
AcDbEntity
  8
Sichtbar (ISO)
  0
LINE
  5
24D
330
75
100
AcDbEntity
  8
Sichtbar (ISO)
100
AcDbLine
 10
403.0734878295723
 20
287.5028091337037
 30
0.0
 11
432.5734878295724
 21
287.5028091337037
 31
0.0
  0
LINE
  5
24E
330
75
100
AcDbEntity
  8
Sichtbar (ISO)
100
AcDbLine
 10
403.0734878295723
 20
287.5028091337037
 30
0.0
 11
403.0734878295723
 21
292.0028091337037
 31
0.0
  0
LINE
  5
24F
330
75
100
AcDbEntity
  8
Sichtbar (ISO)
100
AcDbLine
 10
403.0734878295723
 20
297.0028091337037
 30
0.0
 11
403.0734878295723
 21
306.4028091337037
 31
0.0
  0
LINE
  5
250
330
75
100
AcDbEntity
  8
Sichtbar (ISO)
100
AcDbLine
 10
432.5734878295724
 20
287.5028091337037
 30
0.0
 11
432.5734878295724
 21
306.4028091337037
 31
0.0
  0
LINE
  5
251
330
75
100
AcDbEntity
  8
Sichtbar (ISO)
100
AcDbLine
 10
369.3234878295724
 20
306.4028091337037
 30
0.0
 11
369.3234878295724
 21
355.9028091337037
 31
0.0
  0
LINE
  5
252
330
75
100
AcDbEntity
  8
Sichtbar (ISO)
100
AcDbLine
 10
404.3234878295724
 20
355.9028091337037
 30
0.0
 11
369.3234878295724
 21
355.9028091337037
 31
0.0
  0
LINE
  5
253
330
75
100
AcDbEntity
  8
Sichtbar (ISO)
100
AcDbLine
 10
439.3234878295723
 20
355.9028091337037
 30
0.0
 11
404.3234878295724
 21
355.9028091337037
 31
0.0
  0
LINE
  5
254
330
75
100
AcDbEntity
  8
Sichtbar (ISO)
100
AcDbLine
 10
439.3234878295723
 20
306.4028091337037
 30
0.0
 11
439.3234878295723
 21
355.9028091337037
 31
0.0
  0
LINE
  5
255
330
75
100
AcDbEntity
  8
Sichtbar (ISO)
100
AcDbLine
 10
404.3234878295724
 20
306.4028091337037
 30
0.0
 11
369.3234878295724
 21
306.4028091337037
 31
0.0
  0
LINE
  5
256
330
75
100
AcDbEntity
  8
Sichtbar (ISO)
100
AcDbLine
 10
404.3234878295724
 20
306.4028091337037
 30
0.0
 11
404.3234878295724
 21
355.9028091337037
 31
0.0
  0
LINE
  5
257
330
75
100
AcDbEntity
  8
Sichtbar (ISO)
100
AcDbLine
 10
439.3234878295723
 20
306.4028091337037
 30
0.0
 11
404.3234878295724
 21
306.4028091337037
 31
0.0
  0
LINE
  5
258
330
75
100
AcDbEntity
  8
Sichtbar schmal (ISO)
100
AcDbLine
 10
379.5184878295724
 20
357.1028091337037
 30
0.0
 11
439.1284878295723
 21
357.1028091337037
 31
0.0
  0
LINE
  5
259
330
75
100
AcDbEntity
  8
Sichtbar (ISO)
100
AcDbLine
 10
439.3234878460677
 20
355.9028068557739
 30
0.0
 11
439.3234878460677
 21
356.4470830932616
 31
0.0
  0
ARC
  5
25A
330
75
100
AcDbEntity
  8
Sichtbar (ISO)
100
AcDbCircle
 10
378.3184878295724
 20
357.1028091337037
 30
0.0
 40
1.199999999999999
100
AcDbArc
 50
270.0
 51
0.0
  0
ARC
  5
25B
330
75
100
AcDbEntity
  8
Sichtbar (ISO)
100
AcDbCircle
 10
440.3284878295724
 20
357.1028091337037
 30
0.0
 40
1.2
100
AcDbArc
 50
180.0
 51
213.1229402077407
  0
LINE
  5
25C
330
75
100
AcDbEntity
  8
Sichtbar (ISO)
100
AcDbLine
 10
439.1284878295723
 20
381.8028091337037
 30
0.0
 11
379.5184878295724
 21
381.8028091337037
 31
0.0
  0
LINE
  5
25D
330
75
100
AcDbEntity
  8
Sichtbar (ISO)
100
AcDbLine
 10
381.1184878295725
 20
383.4028091337037
 30
0.0
 11
437.5284878295724
 21
383.4028091337037
 31
0.0
  0
LINE
  5
25E
330
75
100
AcDbEntity
  8
Sichtbar (ISO)
100
AcDbLine
 10
437.5284878295724
 20
383.4028091337037
 30
0.0
 11
439.1284878295723
 21
381.8028091337037
 31
0.0
  0
LINE
  5
25F
330
75
100
AcDbEntity
  8
Sichtbar (ISO)
100
AcDbLine
 10
381.1184878295725
 20
383.4028091337037
 30
0.0
 11
379.5184878295724
 21
381.8028091337037
 31
0.0
  0
LINE
  5
260
330
75
100
AcDbEntity
  8
Sichtbar (ISO)
100
AcDbLine
 10
405.8234878295722
 20
277.0028091337037
 30
0.0
 11
429.8234878295723
 21
277.0028091337037
 31
0.0
  0
ARC
  5
261
330
75
100
AcDbEntity
  8
Sichtbar (ISO)
100
AcDbCircle
 10
417.8234878295723
 20
261.0028091337037
 30
0.0
 40
20.00000000000001
100
AcDbArc
 50
126.869897645844
 51
53.13010235415588
  0
LINE
  5
262
330
75
100
AcDbEntity
  8
Sichtbar (ISO)
100
AcDbLine
 10
410.4818002247501
 20
297.0028091337037
 30
0.0
 11
408.8234878295724
 21
297.0028091337037
 31
0.0
  0
ARC
  5
263
330
75
100
AcDbEntity
  8
Sichtbar (ISO)
100
AcDbCircle
 10
408.8234878295724
 20
294.5028091337037
 30
0.0
 40
2.5
100
AcDbArc
 50
270.0
 51
90.0
  0
ARC
  5
264
330
75
100
AcDbEntity
  8
Sichtbar (ISO)
100
AcDbCircle
 10
374.8234878295725
 20
294.5028091337037
 30
0.0
 40
2.5
100
AcDbArc
 50
90.0
 51
270.0
  0
LINE
  5
265
330
75
100
AcDbEntity
  8
Sichtbar (ISO)
100
AcDbLine
 10
374.8234878295725
 20
292.0028091337037
 30
0.0
 11
408.8234878295724
 21
292.0028091337037
 31
0.0
  0
LINE
  5
266
330
75
100
AcDbEntity
  8
Sichtbar (ISO)
100
AcDbLine
 10
408.8234878295724
 20
297.0028091337038
 30
0.0
 11
374.8234878295725
 21
297.0028091337037
 31
0.0
  0
LINE
  5
267
330
75
100
AcDbEntity
  8
Sichtbar (ISO)
100
AcDbLine
 10
401.3234878295724
 20
383.4028091337037
 30
0.0
 11
401.3234878295724
 21
739.5028091337032
 31
0.0
  0
LINE
  5
268
330
75
100
AcDbEntity
  8
Sichtbar (ISO)
100
AcDbLine
 10
434.3234878295723
 20
383.4028091337037
 30
0.0
 11
434.3234878295723
 21
739.5028091337032
 31
0.0
  0
LINE
  5
269
330
75
100
AcDbEntity
  8
Sichtbar (ISO)
100
AcDbLine
 10
379.5184878295724
 20
357.1028091337037
 30
0.0
 11
379.5184878295724
 21
381.8028091337037
 31
0.0
  0
LINE
  5
26A
330
75
100
AcDbEntity
  8
Sichtbar (ISO)
100
AcDbLine
 10
439.1284878295723
 20
357.1028091337037
 30
0.0
 11
439.1284878295723
 21
381.8028091337037
 31
0.0
  0
LINE
  5
26B
330
75
100
AcDbEntity
  8
Sichtbar (ISO)
100
AcDbLine
 10
421.8234878295723
 20
287.5028091337037
 30
0.0
 11
421.8234878295723
 21
277.0028091337037
 31
0.0
  0
LINE
  5
26C
330
75
100
AcDbEntity
  8
Sichtbar (ISO)
100
AcDbLine
 10
413.8234878295723
 20
287.5028091337037
 30
0.0
 11
413.8234878295722
 21
277.0028091337037
 31
0.0
  0
LINE
  5
26D
330
75
100
AcDbEntity
  8
Sichtbar schmal (ISO)
100
AcDbLine
 10
380.9974878295724
 20
383.2818091337037
 30
0.0
 11
380.9974878295724
 21
359.4028091337037
 31
0.0
  0
LINE
  5
26E
330
75
100
AcDbEntity
  8
Sichtbar schmal (ISO)
100
AcDbLine
 10
437.6494878295725
 20
359.4028091337037
 30
0.0
 11
437.6494878295724
 21
383.2818091337037
 31
0.0
  0
LINE
  5
26F
330
75
100
AcDbEntity
  8
Sichtbar (ISO)
100
AcDbLine
 10
439.1284878295723
 20
359.4028091337037
 30
0.0
 11
379.5184878295724
 21
359.4028091337037
 31
0.0
  0
LINE
  5
270
330
75
100
AcDbEntity
  8
Sichtbar schmal (ISO)
100
AcDbLine
 10
421.0794878295723
 20
277.0028091337037
 30
0.0
 11
421.0794878295723
 21
287.5028091337037
 31
0.0
  0
LINE
  5
271
330
75
100
AcDbEntity
  8
Sichtbar schmal (ISO)
100
AcDbLine
 10
414.5674878295722
 20
287.5028091337037
 30
0.0
 11
414.5674878295722
 21
277.0028091337037
 31
0.0
  0
LINE
  5
272
330
75
100
AcDbEntity
  8
Sichtbar (ISO)
100
AcDbLine
 10
172.9977664194717
 20
739.5028091337032
 30
0.0
 11
139.9977664194717
 21
739.5028091337032
 31
0.0
  0
LINE
  5
273
330
75
100
AcDbEntity
  8
Sichtbar (ISO)
100
AcDbLine
 10
140.4977664194717
 20
740.0028091337032
 30
0.0
 11
172.4977664194717
 21
740.0028091337032
 31
0.0
  0
LINE
  5
274
330
75
100
AcDbEntity
  8
Sichtbar (ISO)
100
AcDbLine
 10
172.4977664194717
 20
740.0028091337032
 30
0.0
 11
172.9977664194717
 21
739.5028091337032
 31
0.0
  0
LINE
  5
275
330
75
100
AcDbEntity
  8
Sichtbar (ISO)
100
AcDbLine
 10
140.4977664194717
 20
740.0028091337032
 30
0.0
 11
139.9977664194717
 21
739.5028091337032
 31
0.0
  0
LINE
  5
276
330
75
100
AcDbEntity
  8
Sichtbar (ISO)
100
AcDbLine
 10
141.7477664194718
 20
287.5028091337039
 30
0.0
 11
171.2477664194718
 21
287.5028091337039
 31
0.0
  0
LINE
  5
277
330
75
100
AcDbEntity
  8
Sichtbar (ISO)
100
AcDbLine
 10
141.7477664194718
 20
287.5028091337039
 30
0.0
 11
141.7477664194718
 21
306.4028091337039
 31
0.0
  0
LINE
  5
278
330
75
100
AcDbEntity
  8
Sichtbar (ISO)
100
AcDbLine
 10
171.2477664194718
 20
287.5028091337039
 30
0.0
 11
171.2477664194718
 21
306.4028091337039
 31
0.0
  0
LINE
  5
279
330
75
100
AcDbEntity
  8
Sichtbar schmal (ISO)
100
AcDbLine
 10
126.6927664194692
 20
357.1028091337039
 30
0.0
 11
186.3027664194692
 21
357.1028091337039
 31
0.0
  0
POLYLINE
  5
27A
330
75
100
AcDbEntity
  8
Sichtbar (ISO)
100
AcDb2dPolyline
 66
     1
 10
0.0
 20
0.0
 30
0.0
 70
   128
  0
VERTEX
  5
27B
330
27A
100
AcDbEntity
  8
Sichtbar (ISO)
100
AcDbVertex
100
AcDb2dVertex
 10
148.6676965769695
 20
355.902806855774
 30
0.0
  0
VERTEX
  5
27C
330
27A
100
AcDbEntity
  8
Sichtbar (ISO)
100
AcDbVertex
100
AcDb2dVertex
 10
149.3061576899456
 20
355.9138027206421
 30
0.0
  0
VERTEX
  5
27E
330
27A
100
AcDbEntity
  8
Sichtbar (ISO)
100
AcDbVertex
100
AcDb2dVertex
 10
149.9745832499432
 20
355.9435049072266
 30
0.0
  0
VERTEX
  5
27F
330
27A
100
AcDbEntity
  8
Sichtbar (ISO)
100
AcDbVertex
100
AcDb2dVertex
 10
150.6445156153606
 20
355.9869972244263
 30
0.0
  0
VERTEX
  5
280
330
27A
100
AcDbEntity
  8
Sichtbar (ISO)
100
AcDbVertex
100
AcDb2dVertex
 10
151.2874971445965
 20
356.0393634811402
 30
0.0
  0
VERTEX
  5
281
330
27A
100
AcDbEntity
  8
Sichtbar (ISO)
100
AcDbVertex
100
AcDb2dVertex
 10
151.9098030146526
 20
356.0983673110962
 30
0.0
  0
VERTEX
  5
282
330
27A
100
AcDbEntity
  8
Sichtbar (ISO)
100
AcDbVertex
100
AcDb2dVertex
 10
152.5549207743572
 20
356.1639848724366
 30
0.0
  0
VERTEX
  5
283
330
27A
100
AcDbEntity
  8
Sichtbar (ISO)
100
AcDbVertex
100
AcDb2dVertex
 10
153.2161985453533
 20
356.2318054214478
 30
0.0
  0
VERTEX
  5
284
330
27A
100
AcDbEntity
  8
Sichtbar (ISO)
100
AcDbVertex
100
AcDb2dVertex
 10
153.8860021647381
 20
356.2973466888428
 30
0.0
  0
VERTEX
  5
285
330
27A
100
AcDbEntity
  8
Sichtbar (ISO)
100
AcDbVertex
100
AcDb2dVertex
 10
154.5566950854229
 20
356.3561311737061
 30
0.0
  0
VERTEX
  5
286
330
27A
100
AcDbEntity
  8
Sichtbar (ISO)
100
AcDbVertex
100
AcDb2dVertex
 10
155.2206431445049
 20
356.4036718383789
 30
0.0
  0
VERTEX
  5
287
330
27A
100
AcDbEntity
  8
Sichtbar (ISO)
100
AcDbVertex
100
AcDb2dVertex
 10
155.8702121790813
 20
356.4354816452027
 30
0.0
  0
VERTEX
  5
288
330
27A
100
AcDbEntity
  8
Sichtbar (ISO)
100
AcDbVertex
100
AcDb2dVertex
 10
156.4977656420635
 20
356.4470830932618
 30
0.0
  0
VERTEX
  5
289
330
27A
100
AcDbEntity
  8
Sichtbar (ISO)
100
AcDbVertex
100
AcDb2dVertex
 10
157.1253214892315
 20
356.4354816452027
 30
0.0
  0
VERTEX
  5
28A
330
27A
100
AcDbEntity
  8
Sichtbar (ISO)
100
AcDbVertex
100
AcDb2dVertex
 10
157.7748905238079
 20
356.4036718383789
 30
0.0
  0
VERTEX
  5
28B
330
27A
100
AcDbEntity
  8
Sichtbar (ISO)
100
AcDbVertex
100
AcDb2dVertex
 10
158.4388385828899
 20
356.3561311737061
 30
0.0
  0
VERTEX
  5
28C
330
27A
100
AcDbEntity
  8
Sichtbar (ISO)
100
AcDbVertex
100
AcDb2dVertex
 10
159.1095315035748
 20
356.2973466888428
 30
0.0
  0
VERTEX
  5
28D
330
27A
100
AcDbEntity
  8
Sichtbar (ISO)
100
AcDbVertex
100
AcDb2dVertex
 10
159.7793351229595
 20
356.2318054214478
 30
0.0
  0
VERTEX
  5
28E
330
27A
100
AcDbEntity
  8
Sichtbar (ISO)
100
AcDbVertex
100
AcDb2dVertex
 10
160.4406128939556
 20
356.1639848724366
 30
0.0
  0
VERTEX
  5
28F
330
27A
100
AcDbEntity
  8
Sichtbar (ISO)
100
AcDbVertex
100
AcDb2dVertex
 10
161.0857282694744
 20
356.0983673110962
 30
0.0
  0
VERTEX
  5
290
330
27A
100
AcDbEntity
  8
Sichtbar (ISO)
100
AcDbVertex
100
AcDb2dVertex
 10
161.7080341395306
 20
356.0393634811402
 30
0.0
  0
VERTEX
  5
291
330
27A
100
AcDbEntity
  8
Sichtbar (ISO)
100
AcDbVertex
100
AcDb2dVertex
 10
162.3510180529522
 20
355.9869972244263
 30
0.0
  0
VERTEX
  5
292
330
27A
100
AcDbEntity
  8
Sichtbar (ISO)
100
AcDbVertex
100
AcDb2dVertex
 10
163.0209504183697
 20
355.9435049072266
 30
0.0
  0
VERTEX
  5
293
330
27A
100
AcDbEntity
  8
Sichtbar (ISO)
100
AcDbVertex
100
AcDb2dVertex
 10
163.6893735941814
 20
355.9138027206421
 30
0.0
  0
VERTEX
  5
294
330
27A
100
AcDbEntity
  8
Sichtbar (ISO)
100
AcDbVertex
100
AcDb2dVertex
 10
164.3278370913433
 20
355.902806855774
 30
0.0
  0
SEQEND
  5
27D
330
27A
100
AcDbEntity
  8
Sichtbar (ISO)
  0
ARC
  5
295
330
75
100
AcDbEntity
  8
Sichtbar (ISO)
100
AcDbCircle
 10
125.4927664194693
 20
357.1028091337039
 30
0.0
 40
1.199999999999999
100
AcDbArc
 50
270.0
 51
0.0
  0
ARC
  5
296
330
75
100
AcDbEntity
  8
Sichtbar (ISO)
100
AcDbCircle
 10
187.5027664194693
 20
357.1028091337039
 30
0.0
 40
1.199999999999999
100
AcDbArc
 50
180.0
 51
270.0
  0
LINE
  5
297
330
75
100
AcDbEntity
  8
Sichtbar (ISO)
100
AcDbLine
 10
176.705025841115
 20
355.902809133704
 30
0.0
 11
164.3278382582292
 21
355.902809133704
 31
0.0
  0
LINE
  5
298
330
75
100
AcDbEntity
  8
Sichtbar (ISO)
100
AcDbLine
 10
196.9122852627416
 20
355.9028091337038
 30
0.0
 11
176.705025841115
 21
355.902809133704
 31
0.0
  0
LINE
  5
299
330
75
100
AcDbEntity
  8
Sichtbar (ISO)
100
AcDbLine
 10
136.2905069978412
 20
355.902809133704
 30
0.0
 11
116.083247576194
 21
355.902809133704
 31
0.0
  0
LINE
  5
29A
330
75
100
AcDbEntity
  8
Sichtbar (ISO)
100
AcDbLine
 10
148.6676945807272
 20
355.902809133704
 30
0.0
 11
136.2905069978412
 21
355.902809133704
 31
0.0
  0
LINE
  5
29B
330
75
100
AcDbEntity
  8
Sichtbar (ISO)
100
AcDbLine
 10
136.2905069978412
 20
306.4028091337039
 30
0.0
 11
136.2905069978412
 21
355.902809133704
 31
0.0
  0
LINE
  5
29C
330
75
100
AcDbEntity
  8
Sichtbar (ISO)
100
AcDbLine
 10
176.705025841115
 20
306.4028091337039
 30
0.0
 11
136.2905069978412
 21
306.4028091337039
 31
0.0
  0
LINE
  5
29D
330
75
100
AcDbEntity
  8
Sichtbar (ISO)
100
AcDbLine
 10
176.705025841115
 20
306.4028091337039
 30
0.0
 11
176.705025841115
 21
355.902809133704
 31
0.0
  0
LINE
  5
29E
330
75
100
AcDbEntity
  8
Sichtbar (ISO)
100
AcDbLine
 10
116.083247576194
 20
306.4028091337039
 30
0.0
 11
116.083247576194
 21
355.902809133704
 31
0.0
  0
LINE
  5
29F
330
75
100
AcDbEntity
  8
Sichtbar (ISO)
100
AcDbLine
 10
196.9122852627416
 20
306.4028091337039
 30
0.0
 11
196.9122852627416
 21
355.9028091337038
 31
0.0
  0
LINE
  5
2A0
330
75
100
AcDbEntity
  8
Sichtbar (ISO)
100
AcDbLine
 10
196.9122852627416
 20
306.4028091337039
 30
0.0
 11
176.705025841115
 21
306.4028091337039
 31
0.0
  0
LINE
  5
2A1
330
75
100
AcDbEntity
  8
Sichtbar (ISO)
100
AcDbLine
 10
136.2905069978412
 20
306.4028091337039
 30
0.0
 11
116.083247576194
 21
306.4028091337039
 31
0.0
  0
LINE
  5
2A2
330
75
100
AcDbEntity
  8
Sichtbar (ISO)
100
AcDbLine
 10
186.3027664194692
 20
381.8028091337039
 30
0.0
 11
126.6927664194693
 21
381.8028091337039
 31
0.0
  0
LINE
  5
2A3
330
75
100
AcDbEntity
  8
Sichtbar (ISO)
100
AcDbLine
 10
128.2927664194693
 20
383.402809133704
 30
0.0
 11
184.7027664194692
 21
383.402809133704
 31
0.0
  0
LINE
  5
2A4
330
75
100
AcDbEntity
  8
Sichtbar (ISO)
100
AcDbLine
 10
184.7027664194692
 20
383.4028091337038
 30
0.0
 11
186.3027664194692
 21
381.8028091337039
 31
0.0
  0
LINE
  5
2A5
330
75
100
AcDbEntity
  8
Sichtbar (ISO)
100
AcDbLine
 10
128.2927664194693
 20
383.402809133704
 30
0.0
 11
126.6927664194693
 21
381.8028091337039
 31
0.0
  0
LINE
  5
2A6
330
75
100
AcDbEntity
  8
Sichtbar (ISO)
100
AcDbLine
 10
144.4977664194718
 20
277.0028091337039
 30
0.0
 11
168.4977664194717
 21
277.0028091337039
 31
0.0
  0
ARC
  5
2A7
330
75
100
AcDbEntity
  8
Sichtbar (ISO)
100
AcDbCircle
 10
156.4977664194717
 20
261.0028091337039
 30
0.0
 40
20.00000000000001
100
AcDbArc
 50
126.869897645844
 51
53.13010235415607
  0
LINE
  5
2A8
330
75
100
AcDbEntity
  8
Sichtbar (ISO)
100
AcDbLine
 10
199.7007263787355
 20
297.0028091337039
 30
0.0
 11
199.7007263787355
 21
292.0028091337039
 31
0.0
  0
LINE
  5
2A9
330
75
100
AcDbEntity
  8
Sichtbar schmal (ISO)
100
AcDbLine
 10
116.7007263787354
 20
292.0028091337039
 30
0.0
 11
116.7007263787354
 21
297.0028091337039
 31
0.0
  0
LINE
  5
2AA
330
75
100
AcDbEntity
  8
Sichtbar (ISO)
100
AcDbLine
 10
199.7007263787355
 20
292.0028091337039
 30
0.0
 11
171.2477664194691
 21
292.0028091337039
 31
0.0
  0
LINE
  5
2AB
330
75
100
AcDbEntity
  8
Sichtbar (ISO)
100
AcDbLine
 10
141.7477664194691
 20
292.0028091337039
 30
0.0
 11
116.7007263787354
 21
292.0028091337039
 31
0.0
  0
LINE
  5
2AC
330
75
100
AcDbEntity
  8
Sichtbar (ISO)
100
AcDbLine
 10
199.7007263787355
 20
297.0028091337039
 30
0.0
 11
171.2477664194691
 21
297.0028091337039
 31
0.0
  0
LINE
  5
2AD
330
75
100
AcDbEntity
  8
Sichtbar (ISO)
100
AcDbLine
 10
141.7477664194691
 20
297.0028091337039
 30
0.0
 11
116.7007263787354
 21
297.0028091337039
 31
0.0
  0
ARC
  5
2AE
330
75
100
AcDbEntity
  8
Sichtbar (ISO)
100
AcDbCircle
 10
99.70072637873045
 20
294.5028091337039
 30
0.0
 40
2.5
100
AcDbArc
 50
90.0
 51
270.0
  0
LINE
  5
2AF
330
75
100
AcDbEntity
  8
Sichtbar (ISO)
100
AcDbLine
 10
99.70072637873045
 20
292.0028091337039
 30
0.0
 11
116.7007263787355
 21
292.0028091337039
 31
0.0
  0
LINE
  5
2B0
330
75
100
AcDbEntity
  8
Sichtbar (ISO)
100
AcDbLine
 10
116.7007263787355
 20
297.0028091337039
 30
0.0
 11
99.70072637873045
 21
297.0028091337038
 31
0.0
  0
LINE
  5
2B1
330
75
100
AcDbEntity
  8
Sichtbar (ISO)
100
AcDbLine
 10
139.9977664194718
 20
383.402809133704
 30
0.0
 11
139.9977664194718
 21
739.5028091337032
 31
0.0
  0
LINE
  5
2B2
330
75
100
AcDbEntity
  8
Sichtbar (ISO)
100
AcDbLine
 10
172.9977664194718
 20
383.402809133704
 30
0.0
 11
172.9977664194718
 21
739.5028091337032
 31
0.0
  0
LINE
  5
2B3
330
75
100
AcDbEntity
  8
Sichtbar (ISO)
100
AcDbLine
 10
126.6927664194692
 20
357.1028091337039
 30
0.0
 11
126.6927664194693
 21
381.8028091337039
 31
0.0
  0
LINE
  5
2B4
330
75
100
AcDbEntity
  8
Sichtbar (ISO)
100
AcDbLine
 10
186.3027664194692
 20
357.1028091337039
 30
0.0
 11
186.3027664194692
 21
381.8028091337039
 31
0.0
  0
LINE
  5
2B5
330
75
100
AcDbEntity
  8
Sichtbar (ISO)
100
AcDbLine
 10
160.4977664194717
 20
287.5028091337039
 30
0.0
 11
160.4977664194717
 21
277.0028091337039
 31
0.0
  0
LINE
  5
2B6
330
75
100
AcDbEntity
  8
Sichtbar (ISO)
100
AcDbLine
 10
152.4977664194717
 20
287.5028091337039
 30
0.0
 11
152.4977664194717
 21
277.0028091337039
 31
0.0
  0
LINE
  5
2B7
330
75
100
AcDbEntity
  8
Sichtbar schmal (ISO)
100
AcDbLine
 10
128.1717664194693
 20
383.2818091337039
 30
0.0
 11
128.1717664194692
 21
359.4028091337039
 31
0.0
  0
LINE
  5
2B8
330
75
100
AcDbEntity
  8
Sichtbar schmal (ISO)
100
AcDbLine
 10
184.8237664194693
 20
359.4028091337039
 30
0.0
 11
184.8237664194693
 21
383.2818091337039
 31
0.0
  0
LINE
  5
2B9
330
75
100
AcDbEntity
  8
Sichtbar (ISO)
100
AcDbLine
 10
186.3027664194692
 20
359.4028091337039
 30
0.0
 11
126.6927664194692
 21
359.4028091337039
 31
0.0
  0
LINE
  5
2BA
330
75
100
AcDbEntity
  8
Sichtbar schmal (ISO)
100
AcDbLine
 10
159.7537664194717
 20
277.0028091337039
 30
0.0
 11
159.7537664194717
 21
287.5028091337039
 31
0.0
  0
LINE
  5
2BB
330
75
100
AcDbEntity
  8
Sichtbar schmal (ISO)
100
AcDbLine
 10
153.2417664194718
 20
287.5028091337039
 30
0.0
 11
153.2417664194717
 21
277.0028091337039
 31
0.0
  0
LINE
  5
2BC
330
75
100
AcDbEntity
  8
Sichtbar (ISO)
100
AcDbLine
 10
688.747690293128
 20
739.5028091337032
 30
0.0
 11
655.7476902931279
 21
739.5028091337032
 31
0.0
  0
LINE
  5
2BD
330
75
100
AcDbEntity
  8
Sichtbar (ISO)
100
AcDbLine
 10
656.247690293128
 20
740.0028091337032
 30
0.0
 11
688.2476902931279
 21
740.0028091337032
 31
0.0
  0
LINE
  5
2BE
330
75
100
AcDbEntity
  8
Sichtbar (ISO)
100
AcDbLine
 10
688.247690293128
 20
740.0028091337032
 30
0.0
 11
688.747690293128
 21
739.5028091337032
 31
0.0
  0
LINE
  5
2BF
330
75
100
AcDbEntity
  8
Sichtbar (ISO)
100
AcDbLine
 10
656.247690293128
 20
740.0028091337032
 30
0.0
 11
655.747690293128
 21
739.5028091337032
 31
0.0
  0
POLYLINE
  5
2C0
330
75
100
AcDbEntity
  8
Sichtbar (ISO)
100
AcDb2dPolyline
 66
     1
 10
0.0
 20
0.0
 30
0.0
 70
   128
  0
VERTEX
  5
2C1
330
2C0
100
AcDbEntity
  8
Sichtbar (ISO)
100
AcDbVertex
100
AcDb2dVertex
 10
659.4550680274801
 20
292.0036828890801
 30
0.0
  0
VERTEX
  5
2C2
330
2C0
100
AcDbEntity
  8
Sichtbar (ISO)
100
AcDbVertex
100
AcDb2dVertex
 10
659.5355271453694
 20
291.9169220701219
 30
0.0
  0
VERTEX
  5
2C4
330
2C0
100
AcDbEntity
  8
Sichtbar (ISO)
100
AcDbVertex
100
AcDb2dVertex
 10
659.6201585883931
 20
291.8381217494966
 30
0.0
  0
VERTEX
  5
2C5
330
2C0
100
AcDbEntity
  8
Sichtbar (ISO)
100
AcDbVertex
100
AcDb2dVertex
 10
659.7087740058736
 20
291.7676642910005
 30
0.0
  0
VERTEX
  5
2C6
330
2C0
100
AcDbEntity
  8
Sichtbar (ISO)
100
AcDbVertex
100
AcDb2dVertex
 10
659.8011969680621
 20
291.7059198394777
 30
0.0
  0
VERTEX
  5
2C7
330
2C0
100
AcDbEntity
  8
Sichtbar (ISO)
100
AcDbVertex
100
AcDb2dVertex
 10
659.8971485252215
 20
291.6529271379472
 30
0.0
  0
VERTEX
  5
2C8
330
2C0
100
AcDbEntity
  8
Sichtbar (ISO)
100
AcDbVertex
100
AcDb2dVertex
 10
659.996123229964
 20
291.6084161773683
 30
0.0
  0
VERTEX
  5
2C9
330
2C0
100
AcDbEntity
  8
Sichtbar (ISO)
100
AcDbVertex
100
AcDb2dVertex
 10
660.0975894088578
 20
291.5721100941659
 30
0.0
  0
VERTEX
  5
2CA
330
2C0
100
AcDbEntity
  8
Sichtbar (ISO)
100
AcDbVertex
100
AcDb2dVertex
 10
660.2010130042863
 20
291.5437317267419
 30
0.0
  0
VERTEX
  5
2CB
330
2C0
100
AcDbEntity
  8
Sichtbar (ISO)
100
AcDbVertex
100
AcDb2dVertex
 10
660.3058647270036
 20
291.5230033174516
 30
0.0
  0
VERTEX
  5
2CC
330
2C0
100
AcDbEntity
  8
Sichtbar (ISO)
100
AcDbVertex
100
AcDb2dVertex
 10
660.4116081352066
 20
291.50964800272
 30
0.0
  0
VERTEX
  5
2CD
330
2C0
100
AcDbEntity
  8
Sichtbar (ISO)
100
AcDbVertex
100
AcDb2dVertex
 10
660.5177139396499
 20
291.5033889189721
 30
0.0
  0
VERTEX
  5
2CE
330
2C0
100
AcDbEntity
  8
Sichtbar (ISO)
100
AcDbVertex
100
AcDb2dVertex
 10
660.6243061179947
 20
291.503931917286
 30
0.0
  0
VERTEX
  5
2CF
330
2C0
100
AcDbEntity
  8
Sichtbar (ISO)
100
AcDbVertex
100
AcDb2dVertex
 10
660.7337760085892
 20
291.5110221878053
 30
0.0
  0
VERTEX
  5
2D0
330
2C0
100
AcDbEntity
  8
Sichtbar (ISO)
100
AcDbVertex
100
AcDb2dVertex
 10
660.8461140746901
 20
291.5245908871652
 30
0.0
  0
VERTEX
  5
2D1
330
2C0
100
AcDbEntity
  8
Sichtbar (ISO)
100
AcDbVertex
100
AcDb2dVertex
 10
660.9609769935438
 20
291.5445843711854
 30
0.0
  0
VERTEX
  5
2D2
330
2C0
100
AcDbEntity
  8
Sichtbar (ISO)
100
AcDbVertex
100
AcDb2dVertex
 10
661.078026210768
 20
291.5709483996392
 30
0.0
  0
VERTEX
  5
2D3
330
2C0
100
AcDbEntity
  8
Sichtbar (ISO)
100
AcDbVertex
100
AcDb2dVertex
 10
661.1969207877941
 20
291.6036284342767
 30
0.0
  0
VERTEX
  5
2D4
330
2C0
100
AcDbEntity
  8
Sichtbar (ISO)
100
AcDbVertex
100
AcDb2dVertex
 10
661.3173245544262
 20
291.6425711289407
 30
0.0
  0
VERTEX
  5
2D5
330
2C0
100
AcDbEntity
  8
Sichtbar (ISO)
100
AcDbVertex
100
AcDb2dVertex
 10
661.4388918037243
 20
291.6877219453813
 30
0.0
  0
VERTEX
  5
2D6
330
2C0
100
AcDbEntity
  8
Sichtbar (ISO)
100
AcDbVertex
100
AcDb2dVertex
 10
661.5612863654919
 20
291.7390266433717
 30
0.0
  0
VERTEX
  5
2D7
330
2C0
100
AcDbEntity
  8
Sichtbar (ISO)
100
AcDbVertex
100
AcDb2dVertex
 10
661.6841696853465
 20
291.7964223400117
 30
0.0
  0
VERTEX
  5
2D8
330
2C0
100
AcDbEntity
  8
Sichtbar (ISO)
100
AcDbVertex
100
AcDb2dVertex
 10
661.8071436042613
 20
291.8597057834626
 30
0.0
  0
VERTEX
  5
2D9
330
2C0
100
AcDbEntity
  8
Sichtbar (ISO)
100
AcDbVertex
100
AcDb2dVertex
 10
661.9297718162364
 20
291.9286382571221
 30
0.0
  0
VERTEX
  5
2DA
330
2C0
100
AcDbEntity
  8
Sichtbar (ISO)
100
AcDbVertex
100
AcDb2dVertex
 10
662.0516060943431
 20
292.0029932633401
 30
0.0
  0
SEQEND
  5
2C3
330
2C0
100
AcDbEntity
  8
Sichtbar (ISO)
  0
POLYLINE
  5
2DB
330
75
100
AcDbEntity
  8
Sichtbar (ISO)
100
AcDb2dPolyline
 66
     1
 10
0.0
 20
0.0
 30
0.0
 70
   128
  0
VERTEX
  5
2DC
330
2DB
100
AcDbEntity
  8
Sichtbar (ISO)
100
AcDbVertex
100
AcDb2dVertex
 10
662.0516060943431
 20
297.0026252046586
 30
0.0
  0
VERTEX
  5
2DD
330
2DB
100
AcDbEntity
  8
Sichtbar (ISO)
100
AcDbVertex
100
AcDb2dVertex
 10
661.9297718162364
 20
297.0769802108766
 30
0.0
  0
VERTEX
  5
2DF
330
2DB
100
AcDbEntity
  8
Sichtbar (ISO)
100
AcDbVertex
100
AcDb2dVertex
 10
661.8071436042613
 20
297.1459123865129
 30
0.0
  0
VERTEX
  5
2E0
330
2DB
100
AcDbEntity
  8
Sichtbar (ISO)
100
AcDbVertex
100
AcDb2dVertex
 10
661.6841696853465
 20
297.2091958299638
 30
0.0
  0
VERTEX
  5
2E1
330
2DB
100
AcDbEntity
  8
Sichtbar (ISO)
100
AcDbVertex
100
AcDb2dVertex
 10
661.5612863654919
 20
297.2665915266038
 30
0.0
  0
VERTEX
  5
2E2
330
2DB
100
AcDbEntity
  8
Sichtbar (ISO)
100
AcDbVertex
100
AcDb2dVertex
 10
661.4388918037243
 20
297.3178962245942
 30
0.0
  0
VERTEX
  5
2E3
330
2DB
100
AcDbEntity
  8
Sichtbar (ISO)
100
AcDbVertex
100
AcDb2dVertex
 10
661.3173245544262
 20
297.363047339058
 30
0.0
  0
VERTEX
  5
2E4
330
2DB
100
AcDbEntity
  8
Sichtbar (ISO)
100
AcDbVertex
100
AcDb2dVertex
 10
661.1969207877941
 20
297.4019894376756
 30
0.0
  0
VERTEX
  5
2E5
330
2DB
100
AcDbEntity
  8
Sichtbar (ISO)
100
AcDbVertex
100
AcDb2dVertex
 10
661.078026210768
 20
297.4346700683595
 30
0.0
  0
VERTEX
  5
2E6
330
2DB
100
AcDbEntity
  8
Sichtbar (ISO)
100
AcDbVertex
100
AcDb2dVertex
 10
660.9609769935438
 20
297.4610337987901
 30
0.0
  0
VERTEX
  5
2E7
330
2DB
100
AcDbEntity
  8
Sichtbar (ISO)
100
AcDbVertex
100
AcDb2dVertex
 10
660.8461140746901
 20
297.4810275808335
 30
0.0
  0
VERTEX
  5
2E8
330
2DB
100
AcDbEntity
  8
Sichtbar (ISO)
100
AcDbVertex
100
AcDb2dVertex
 10
660.7337760085892
 20
297.4945959821702
 30
0.0
  0
VERTEX
  5
2E9
330
2DB
100
AcDbEntity
  8
Sichtbar (ISO)
100
AcDbVertex
100
AcDb2dVertex
 10
660.6243061179947
 20
297.5016865507127
 30
0.0
  0
VERTEX
  5
2EA
330
2DB
100
AcDbEntity
  8
Sichtbar (ISO)
100
AcDbVertex
100
AcDb2dVertex
 10
660.5177139396499
 20
297.5022295490266
 30
0.0
  0
VERTEX
  5
2EB
330
2DB
100
AcDbEntity
  8
Sichtbar (ISO)
100
AcDbVertex
100
AcDb2dVertex
 10
660.4116081352066
 20
297.4959698692323
 30
0.0
  0
VERTEX
  5
2EC
330
2DB
100
AcDbEntity
  8
Sichtbar (ISO)
100
AcDbVertex
100
AcDb2dVertex
 10
660.3058647270036
 20
297.4826148525239
 30
0.0
  0
VERTEX
  5
2ED
330
2DB
100
AcDbEntity
  8
Sichtbar (ISO)
100
AcDbVertex
100
AcDb2dVertex
 10
660.2010130042863
 20
297.4618867412568
 30
0.0
  0
VERTEX
  5
2EE
330
2DB
100
AcDbEntity
  8
Sichtbar (ISO)
100
AcDbVertex
100
AcDb2dVertex
 10
660.0975894088578
 20
297.4335077777864
 30
0.0
  0
VERTEX
  5
2EF
330
2DB
100
AcDbEntity
  8
Sichtbar (ISO)
100
AcDbVertex
100
AcDb2dVertex
 10
659.996123229964
 20
297.3972019926072
 30
0.0
  0
VERTEX
  5
2F0
330
2DB
100
AcDbEntity
  8
Sichtbar (ISO)
100
AcDbVertex
100
AcDb2dVertex
 10
659.8971485252215
 20
297.3526910320283
 30
0.0
  0
VERTEX
  5
2F1
330
2DB
100
AcDbEntity
  8
Sichtbar (ISO)
100
AcDbVertex
100
AcDb2dVertex
 10
659.8011969680621
 20
297.2996983304978
 30
0.0
  0
VERTEX
  5
2F2
330
2DB
100
AcDbEntity
  8
Sichtbar (ISO)
100
AcDbVertex
100
AcDb2dVertex
 10
659.7087740058736
 20
297.237953878975
 30
0.0
  0
VERTEX
  5
2F3
330
2DB
100
AcDbEntity
  8
Sichtbar (ISO)
100
AcDbVertex
100
AcDb2dVertex
 10
659.6201585883931
 20
297.1674964204789
 30
0.0
  0
VERTEX
  5
2F4
330
2DB
100
AcDbEntity
  8
Sichtbar (ISO)
100
AcDbVertex
100
AcDb2dVertex
 10
659.5355271453694
 20
297.0886960998536
 30
0.0
  0
VERTEX
  5
2F5
330
2DB
100
AcDbEntity
  8
Sichtbar (ISO)
100
AcDbVertex
100
AcDb2dVertex
 10
659.4550680274801
 20
297.0019355789186
 30
0.0
  0
SEQEND
  5
2DE
330
2DB
100
AcDbEntity
  8
Sichtbar (ISO)
  0
POLYLINE
  5
2F6
330
75
100
AcDbEntity
  8
Sichtbar (ISO)
100
AcDb2dPolyline
 66
     1
 10
0.0
 20
0.0
 30
0.0
 70
   128
  0
VERTEX
  5
2F7
330
2F6
100
AcDbEntity
  8
Sichtbar (ISO)
100
AcDbVertex
100
AcDb2dVertex
 10
685.0403141136007
 20
297.0019355789186
 30
0.0
  0
VERTEX
  5
2F8
330
2F6
100
AcDbEntity
  8
Sichtbar (ISO)
100
AcDbVertex
100
AcDb2dVertex
 10
684.9598526115254
 20
297.0886960998536
 30
0.0
  0
VERTEX
  5
2FA
330
2F6
100
AcDbEntity
  8
Sichtbar (ISO)
100
AcDbVertex
100
AcDb2dVertex
 10
684.8752235526875
 20
297.1674964204789
 30
0.0
  0
VERTEX
  5
2FB
330
2F6
100
AcDbEntity
  8
Sichtbar (ISO)
100
AcDbVertex
100
AcDb2dVertex
 10
684.7866033668355
 20
297.237953878975
 30
0.0
  0
VERTEX
  5
2FC
330
2F6
100
AcDbEntity
  8
Sichtbar (ISO)
100
AcDbVertex
100
AcDb2dVertex
 10
684.6941827888324
 20
297.2996983304978
 30
0.0
  0
VERTEX
  5
2FD
330
2F6
100
AcDbEntity
  8
Sichtbar (ISO)
100
AcDbVertex
100
AcDb2dVertex
 10
684.5982336158588
 20
297.3526910320283
 30
0.0
  0
VERTEX
  5
2FE
330
2F6
100
AcDbEntity
  8
Sichtbar (ISO)
100
AcDbVertex
100
AcDb2dVertex
 10
684.4992565269306
 20
297.3972019926072
 30
0.0
  0
VERTEX
  5
2FF
330
2F6
100
AcDbEntity
  8
Sichtbar (ISO)
100
AcDbVertex
100
AcDb2dVertex
 10
684.3977903480363
 20
297.4335077777864
 30
0.0
  0
VERTEX
  5
300
330
2F6
100
AcDbEntity
  8
Sichtbar (ISO)
100
AcDbVertex
100
AcDb2dVertex
 10
684.2943691367936
 20
297.4618867412568
 30
0.0
  0
VERTEX
  5
301
330
2F6
100
AcDbEntity
  8
Sichtbar (ISO)
100
AcDbVertex
100
AcDb2dVertex
 10
684.1895174140764
 20
297.4826148525239
 30
0.0
  0
VERTEX
  5
302
330
2F6
100
AcDbEntity
  8
Sichtbar (ISO)
100
AcDbVertex
100
AcDb2dVertex
 10
684.0837740058731
 20
297.4959698692323
 30
0.0
  0
VERTEX
  5
303
330
2F6
100
AcDbEntity
  8
Sichtbar (ISO)
100
AcDbVertex
100
AcDb2dVertex
 10
683.9776682014298
 20
297.5022295490266
 30
0.0
  0
VERTEX
  5
304
330
2F6
100
AcDbEntity
  8
Sichtbar (ISO)
100
AcDbVertex
100
AcDb2dVertex
 10
683.871076023085
 20
297.5016865507127
 30
0.0
  0
VERTEX
  5
305
330
2F6
100
AcDbEntity
  8
Sichtbar (ISO)
100
AcDbVertex
100
AcDb2dVertex
 10
683.7616037483047
 20
297.4945959821702
 30
0.0
  0
VERTEX
  5
306
330
2F6
100
AcDbEntity
  8
Sichtbar (ISO)
100
AcDbVertex
100
AcDb2dVertex
 10
683.6492656822035
 20
297.4810275808335
 30
0.0
  0
VERTEX
  5
307
330
2F6
100
AcDbEntity
  8
Sichtbar (ISO)
100
AcDbVertex
100
AcDb2dVertex
 10
683.5344051475356
 20
297.4610337987901
 30
0.0
  0
VERTEX
  5
308
330
2F6
100
AcDbEntity
  8
Sichtbar (ISO)
100
AcDbVertex
100
AcDb2dVertex
 10
683.4173559303114
 20
297.4346700683595
 30
0.0
  0
VERTEX
  5
309
330
2F6
100
AcDbEntity
  8
Sichtbar (ISO)
100
AcDbVertex
100
AcDb2dVertex
 10
683.2984565849133
 20
297.4019894376756
 30
0.0
  0
VERTEX
  5
30A
330
2F6
100
AcDbEntity
  8
Sichtbar (ISO)
100
AcDbVertex
100
AcDb2dVertex
 10
683.178055202467
 20
297.363047339058
 30
0.0
  0
VERTEX
  5
30B
330
2F6
100
AcDbEntity
  8
Sichtbar (ISO)
100
AcDbVertex
100
AcDb2dVertex
 10
683.0564903373547
 20
297.3178962245942
 30
0.0
  0
VERTEX
  5
30C
330
2F6
100
AcDbEntity
  8
Sichtbar (ISO)
100
AcDbVertex
100
AcDb2dVertex
 10
682.9340910072155
 20
297.2665915266038
 30
0.0
  0
VERTEX
  5
30D
330
2F6
100
AcDbEntity
  8
Sichtbar (ISO)
100
AcDbVertex
100
AcDb2dVertex
 10
682.8112100715465
 20
297.2091958299638
 30
0.0
  0
VERTEX
  5
30E
330
2F6
100
AcDbEntity
  8
Sichtbar (ISO)
100
AcDbVertex
100
AcDb2dVertex
 10
682.6882385368175
 20
297.1459123865129
 30
0.0
  0
VERTEX
  5
30F
330
2F6
100
AcDbEntity
  8
Sichtbar (ISO)
100
AcDbVertex
100
AcDb2dVertex
 10
682.5656103248424
 20
297.0769802108766
 30
0.0
  0
VERTEX
  5
310
330
2F6
100
AcDbEntity
  8
Sichtbar (ISO)
100
AcDbVertex
100
AcDb2dVertex
 10
682.4437736625498
 20
297.0026252046586
 30
0.0
  0
SEQEND
  5
2F9
330
2F6
100
AcDbEntity
  8
Sichtbar (ISO)
  0
POLYLINE
  5
311
330
75
100
AcDbEntity
  8
Sichtbar (ISO)
100
AcDb2dPolyline
 66
     1
 10
0.0
 20
0.0
 30
0.0
 70
   128
  0
VERTEX
  5
312
330
311
100
AcDbEntity
  8
Sichtbar (ISO)
100
AcDbVertex
100
AcDb2dVertex
 10
682.4437736625498
 20
292.0029932633401
 30
0.0
  0
VERTEX
  5
313
330
311
100
AcDbEntity
  8
Sichtbar (ISO)
100
AcDbVertex
100
AcDb2dVertex
 10
682.5656103248424
 20
291.9286382571221
 30
0.0
  0
VERTEX
  5
315
330
311
100
AcDbEntity
  8
Sichtbar (ISO)
100
AcDbVertex
100
AcDb2dVertex
 10
682.6882385368175
 20
291.8597057834626
 30
0.0
  0
VERTEX
  5
316
330
311
100
AcDbEntity
  8
Sichtbar (ISO)
100
AcDbVertex
100
AcDb2dVertex
 10
682.8112100715465
 20
291.7964223400117
 30
0.0
  0
VERTEX
  5
317
330
311
100
AcDbEntity
  8
Sichtbar (ISO)
100
AcDbVertex
100
AcDb2dVertex
 10
682.9340910072155
 20
291.7390266433717
 30
0.0
  0
VERTEX
  5
318
330
311
100
AcDbEntity
  8
Sichtbar (ISO)
100
AcDbVertex
100
AcDb2dVertex
 10
683.0564903373547
 20
291.6877219453813
 30
0.0
  0
VERTEX
  5
319
330
311
100
AcDbEntity
  8
Sichtbar (ISO)
100
AcDbVertex
100
AcDb2dVertex
 10
683.178055202467
 20
291.6425711289407
 30
0.0
  0
VERTEX
  5
31A
330
311
100
AcDbEntity
  8
Sichtbar (ISO)
100
AcDbVertex
100
AcDb2dVertex
 10
683.2984565849133
 20
291.6036284342767
 30
0.0
  0
VERTEX
  5
31B
330
311
100
AcDbEntity
  8
Sichtbar (ISO)
100
AcDbVertex
100
AcDb2dVertex
 10
683.4173559303114
 20
291.5709483996392
 30
0.0
  0
VERTEX
  5
31C
330
311
100
AcDbEntity
  8
Sichtbar (ISO)
100
AcDbVertex
100
AcDb2dVertex
 10
683.5344051475356
 20
291.5445843711854
 30
0.0
  0
VERTEX
  5
31D
330
311
100
AcDbEntity
  8
Sichtbar (ISO)
100
AcDbVertex
100
AcDb2dVertex
 10
683.6492656822035
 20
291.5245908871652
 30
0.0
  0
VERTEX
  5
31E
330
311
100
AcDbEntity
  8
Sichtbar (ISO)
100
AcDbVertex
100
AcDb2dVertex
 10
683.7616037483047
 20
291.5110221878053
 30
0.0
  0
VERTEX
  5
31F
330
311
100
AcDbEntity
  8
Sichtbar (ISO)
100
AcDbVertex
100
AcDb2dVertex
 10
683.871076023085
 20
291.503931917286
 30
0.0
  0
VERTEX
  5
320
330
311
100
AcDbEntity
  8
Sichtbar (ISO)
100
AcDbVertex
100
AcDb2dVertex
 10
683.9776682014298
 20
291.5033889189721
 30
0.0
  0
VERTEX
  5
321
330
311
100
AcDbEntity
  8
Sichtbar (ISO)
100
AcDbVertex
100
AcDb2dVertex
 10
684.0837740058731
 20
291.50964800272
 30
0.0
  0
VERTEX
  5
322
330
311
100
AcDbEntity
  8
Sichtbar (ISO)
100
AcDbVertex
100
AcDb2dVertex
 10
684.1895174140764
 20
291.5230033174516
 30
0.0
  0
VERTEX
  5
323
330
311
100
AcDbEntity
  8
Sichtbar (ISO)
100
AcDbVertex
100
AcDb2dVertex
 10
684.2943691367936
 20
291.5437317267419
 30
0.0
  0
VERTEX
  5
324
330
311
100
AcDbEntity
  8
Sichtbar (ISO)
100
AcDbVertex
100
AcDb2dVertex
 10
684.3977903480363
 20
291.5721100941659
 30
0.0
  0
VERTEX
  5
325
330
311
100
AcDbEntity
  8
Sichtbar (ISO)
100
AcDbVertex
100
AcDb2dVertex
 10
684.4992565269306
 20
291.6084161773683
 30
0.0
  0
VERTEX
  5
326
330
311
100
AcDbEntity
  8
Sichtbar (ISO)
100
AcDbVertex
100
AcDb2dVertex
 10
684.5982336158588
 20
291.6529271379472
 30
0.0
  0
VERTEX
  5
327
330
311
100
AcDbEntity
  8
Sichtbar (ISO)
100
AcDbVertex
100
AcDb2dVertex
 10
684.6941827888324
 20
291.7059198394777
 30
0.0
  0
VERTEX
  5
328
330
311
100
AcDbEntity
  8
Sichtbar (ISO)
100
AcDbVertex
100
AcDb2dVertex
 10
684.7866033668355
 20
291.7676642910005
 30
0.0
  0
VERTEX
  5
329
330
311
100
AcDbEntity
  8
Sichtbar (ISO)
100
AcDbVertex
100
AcDb2dVertex
 10
684.8752235526875
 20
291.8381217494966
 30
0.0
  0
VERTEX
  5
32A
330
311
100
AcDbEntity
  8
Sichtbar (ISO)
100
AcDbVertex
100
AcDb2dVertex
 10
684.9598526115254
 20
291.9169220701219
 30
0.0
  0
VERTEX
  5
32B
330
311
100
AcDbEntity
  8
Sichtbar (ISO)
100
AcDbVertex
100
AcDb2dVertex
 10
685.0403141136007
 20
292.0036828890801
 30
0.0
  0
SEQEND
  5
314
330
311
100
AcDbEntity
  8
Sichtbar (ISO)
  0
LINE
  5
32C
330
75
100
AcDbEntity
  8
Sichtbar (ISO)
100
AcDbLine
 10
657.497690293128
 20
287.5028091337039
 30
0.0
 11
686.9976902931279
 21
287.5028091337039
 31
0.0
  0
LINE
  5
32D
330
75
100
AcDbEntity
  8
Sichtbar (ISO)
100
AcDbLine
 10
657.497690293128
 20
287.5028091337039
 30
0.0
 11
657.497690293128
 21
292.0028091337039
 31
0.0
  0
LINE
  5
32E
330
75
100
AcDbEntity
  8
Sichtbar (ISO)
100
AcDbLine
 10
657.4976902931279
 20
297.0028091337039
 30
0.0
 11
657.4976902931279
 21
306.4028091337039
 31
0.0
  0
LINE
  5
32F
330
75
100
AcDbEntity
  8
Sichtbar (ISO)
100
AcDbLine
 10
686.9976902931279
 20
287.5028091337039
 30
0.0
 11
686.9976902931279
 21
292.0028091337039
 31
0.0
  0
LINE
  5
330
330
75
100
AcDbEntity
  8
Sichtbar (ISO)
100
AcDbLine
 10
686.9976902931279
 20
297.0028091337039
 30
0.0
 11
686.9976902931279
 21
306.4028091337039
 31
0.0
  0
POLYLINE
  5
331
330
75
100
AcDbEntity
  8
Sichtbar (ISO)
100
AcDb2dPolyline
 66
     1
 10
0.0
 20
0.0
 30
0.0
 70
   128
  0
VERTEX
  5
332
330
331
100
AcDbEntity
  8
Sichtbar (ISO)
100
AcDbVertex
100
AcDb2dVertex
 10
661.5197323913412
 20
292.0036808029176
 30
0.0
  0
VERTEX
  5
333
330
331
100
AcDbEntity
  8
Sichtbar (ISO)
100
AcDbVertex
100
AcDb2dVertex
 10
661.528336917861
 20
291.9953999296189
 30
0.0
  0
VERTEX
  5
335
330
331
100
AcDbEntity
  8
Sichtbar (ISO)
100
AcDbVertex
100
AcDb2dVertex
 10
661.5369867439108
 20
291.9871855154992
 30
0.0
  0
VERTEX
  5
336
330
331
100
AcDbEntity
  8
Sichtbar (ISO)
100
AcDbVertex
100
AcDb2dVertex
 10
661.5456794853047
 20
291.9790375605584
 30
0.0
  0
VERTEX
  5
337
330
331
100
AcDbEntity
  8
Sichtbar (ISO)
100
AcDbVertex
100
AcDb2dVertex
 10
661.5544127578572
 20
291.9709560647966
 30
0.0
  0
VERTEX
  5
338
330
331
100
AcDbEntity
  8
Sichtbar (ISO)
100
AcDbVertex
100
AcDb2dVertex
 10
661.5631913299397
 20
291.96294162426
 30
0.0
  0
VERTEX
  5
339
330
331
100
AcDbEntity
  8
Sichtbar (ISO)
100
AcDbVertex
100
AcDb2dVertex
 10
661.5720128173665
 20
291.9549945369722
 30
0.0
  0
VERTEX
  5
33A
330
331
100
AcDbEntity
  8
Sichtbar (ISO)
100
AcDbVertex
100
AcDb2dVertex
 10
661.5808772201375
 20
291.9471145049096
 30
0.0
  0
VERTEX
  5
33B
330
331
100
AcDbEntity
  8
Sichtbar (ISO)
100
AcDbVertex
100
AcDb2dVertex
 10
661.5897821540669
 20
291.9393021241189
 30
0.0
  0
VERTEX
  5
33C
330
331
100
AcDbEntity
  8
Sichtbar (ISO)
100
AcDbVertex
100
AcDb2dVertex
 10
661.5987300033406
 20
291.9315573946
 30
0.0
  0
VERTEX
  5
33D
330
331
100
AcDbEntity
  8
Sichtbar (ISO)
100
AcDbVertex
100
AcDb2dVertex
 10
661.6077183837727
 20
291.9238809123994
 30
0.0
  0
VERTEX
  5
33E
330
331
100
AcDbEntity
  8
Sichtbar (ISO)
100
AcDbVertex
100
AcDb2dVertex
 10
661.616749679549
 20
291.916272677517
 30
0.0
  0
VERTEX
  5
33F
330
331
100
AcDbEntity
  8
Sichtbar (ISO)
100
AcDbVertex
100
AcDb2dVertex
 10
661.6258238906697
 20
291.9087326899529
 30
0.0
  0
VERTEX
  5
340
330
331
100
AcDbEntity
  8
Sichtbar (ISO)
100
AcDbVertex
100
AcDb2dVertex
 10
661.6349362487629
 20
291.9012615457536
 30
0.0
  0
VERTEX
  5
341
330
331
100
AcDbEntity
  8
Sichtbar (ISO)
100
AcDbVertex
100
AcDb2dVertex
 10
661.6440915222004
 20
291.8938592449189
 30
0.0
  0
VERTEX
  5
342
330
331
100
AcDbEntity
  8
Sichtbar (ISO)
100
AcDbVertex
100
AcDb2dVertex
 10
661.6532873267964
 20
291.8865260854722
 30
0.0
  0
VERTEX
  5
343
330
331
100
AcDbEntity
  8
Sichtbar (ISO)
100
AcDbVertex
100
AcDb2dVertex
 10
661.6625236625508
 20
291.8792623654367
 30
0.0
  0
VERTEX
  5
344
330
331
100
AcDbEntity
  8
Sichtbar (ISO)
100
AcDbVertex
100
AcDb2dVertex
 10
661.6718005294636
 20
291.8720680848123
 30
0.0
  0
VERTEX
  5
345
330
331
100
AcDbEntity
  8
Sichtbar (ISO)
100
AcDbVertex
100
AcDb2dVertex
 10
661.6811179275349
 20
291.8649435416223
 30
0.0
  0
VERTEX
  5
346
330
331
100
AcDbEntity
  8
Sichtbar (ISO)
100
AcDbVertex
100
AcDb2dVertex
 10
661.6904758567646
 20
291.8578890338899
 30
0.0
  0
VERTEX
  5
347
330
331
100
AcDbEntity
  8
Sichtbar (ISO)
100
AcDbVertex
100
AcDb2dVertex
 10
661.6998719329671
 20
291.8509048596383
 30
0.0
  0
VERTEX
  5
348
330
331
100
AcDbEntity
  8
Sichtbar (ISO)
100
AcDbVertex
100
AcDb2dVertex
 10
661.7093085403279
 20
291.8439910188676
 30
0.0
  0
VERTEX
  5
349
330
331
100
AcDbEntity
  8
Sichtbar (ISO)
100
AcDbVertex
100
AcDb2dVertex
 10
661.7187856788472
 20
291.8371478096009
 30
0.0
  0
VERTEX
  5
34A
330
331
100
AcDbEntity
  8
Sichtbar (ISO)
100
AcDbVertex
100
AcDb2dVertex
 10
661.7283009643391
 20
291.8303758278848
 30
0.0
  0
VERTEX
  5
34B
330
331
100
AcDbEntity
  8
Sichtbar (ISO)
100
AcDbVertex
100
AcDb2dVertex
 10
661.7378543968037
 20
291.8236744776727
 30
0.0
  0
SEQEND
  5
334
330
331
100
AcDbEntity
  8
Sichtbar (ISO)
  0
POLYLINE
  5
34C
330
75
100
AcDbEntity
  8
Sichtbar (ISO)
100
AcDb2dPolyline
 66
     1
 10
0.0
 20
0.0
 30
0.0
 70
   128
  0
VERTEX
  5
34D
330
34C
100
AcDbEntity
  8
Sichtbar (ISO)
100
AcDbVertex
100
AcDb2dVertex
 10
661.7377971763447
 20
297.1820631996156
 30
0.0
  0
VERTEX
  5
34E
330
34C
100
AcDbEntity
  8
Sichtbar (ISO)
100
AcDbVertex
100
AcDb2dVertex
 10
661.7282532806233
 20
297.1753684059144
 30
0.0
  0
VERTEX
  5
350
330
34C
100
AcDbEntity
  8
Sichtbar (ISO)
100
AcDbVertex
100
AcDb2dVertex
 10
661.7187475318745
 20
297.1686014905931
 30
0.0
  0
VERTEX
  5
351
330
34C
100
AcDbEntity
  8
Sichtbar (ISO)
100
AcDbVertex
100
AcDb2dVertex
 10
661.7092823142842
 20
297.1617624536516
 30
0.0
  0
VERTEX
  5
352
330
34C
100
AcDbEntity
  8
Sichtbar (ISO)
100
AcDbVertex
100
AcDb2dVertex
 10
661.6998552436665
 20
297.1548512950898
 30
0.0
  0
VERTEX
  5
353
330
34C
100
AcDbEntity
  8
Sichtbar (ISO)
100
AcDbVertex
100
AcDb2dVertex
 10
661.6904663200215
 20
297.1478686109544
 30
0.0
  0
VERTEX
  5
354
330
34C
100
AcDbEntity
  8
Sichtbar (ISO)
100
AcDbVertex
100
AcDb2dVertex
 10
661.6811179275349
 20
297.1408149972917
 30
0.0
  0
VERTEX
  5
355
330
34C
100
AcDbEntity
  8
Sichtbar (ISO)
100
AcDbVertex
100
AcDb2dVertex
 10
661.671807682021
 20
297.1336904541017
 30
0.0
  0
VERTEX
  5
356
330
34C
100
AcDbEntity
  8
Sichtbar (ISO)
100
AcDbVertex
100
AcDb2dVertex
 10
661.6625379676655
 20
297.126494385338
 30
0.0
  0
VERTEX
  5
357
330
34C
100
AcDbEntity
  8
Sichtbar (ISO)
100
AcDbVertex
100
AcDb2dVertex
 10
661.6533087844685
 20
297.1192279830934
 30
0.0
  0
VERTEX
  5
358
330
34C
100
AcDbEntity
  8
Sichtbar (ISO)
100
AcDbVertex
100
AcDb2dVertex
 10
661.6441177482442
 20
297.1118906513215
 30
0.0
  0
VERTEX
  5
359
330
34C
100
AcDbEntity
  8
Sichtbar (ISO)
100
AcDbVertex
100
AcDb2dVertex
 10
661.6349696273641
 20
297.1044835821153
 30
0.0
  0
VERTEX
  5
35A
330
34C
100
AcDbEntity
  8
Sichtbar (ISO)
100
AcDbVertex
100
AcDb2dVertex
 10
661.6258596534565
 20
297.0970061794282
 30
0.0
  0
VERTEX
  5
35B
330
34C
100
AcDbEntity
  8
Sichtbar (ISO)
100
AcDbVertex
100
AcDb2dVertex
 10
661.6167902107076
 20
297.0894584432603
 30
0.0
  0
VERTEX
  5
35C
330
34C
100
AcDbEntity
  8
Sichtbar (ISO)
100
AcDbVertex
100
AcDb2dVertex
 10
661.6077636833027
 20
297.0818415657045
 30
0.0
  0
VERTEX
  5
35D
330
34C
100
AcDbEntity
  8
Sichtbar (ISO)
100
AcDbVertex
100
AcDb2dVertex
 10
661.5987753028706
 20
297.0741549507142
 30
0.0
  0
VERTEX
  5
35E
330
34C
100
AcDbEntity
  8
Sichtbar (ISO)
100
AcDbVertex
100
AcDb2dVertex
 10
661.5898298377827
 20
297.066399194336
 30
0.0
  0
VERTEX
  5
35F
330
34C
100
AcDbEntity
  8
Sichtbar (ISO)
100
AcDbVertex
100
AcDb2dVertex
 10
661.5809249038533
 20
297.0585748926164
 30
0.0
  0
VERTEX
  5
360
330
34C
100
AcDbEntity
  8
Sichtbar (ISO)
100
AcDbVertex
100
AcDb2dVertex
 10
661.5720628852681
 20
297.0506808534623
 30
0.0
  0
VERTEX
  5
361
330
34C
100
AcDbEntity
  8
Sichtbar (ISO)
100
AcDbVertex
100
AcDb2dVertex
 10
661.5632413978413
 20
297.0427188650132
 30
0.0
  0
VERTEX
  5
362
330
34C
100
AcDbEntity
  8
Sichtbar (ISO)
100
AcDbVertex
100
AcDb2dVertex
 10
661.554460441573
 20
297.0346883312227
 30
0.0
  0
VERTEX
  5
363
330
34C
100
AcDbEntity
  8
Sichtbar (ISO)
100
AcDbVertex
100
AcDb2dVertex
 10
661.5457224006489
 20
297.0265892520906
 30
0.0
  0
VERTEX
  5
364
330
34C
100
AcDbEntity
  8
Sichtbar (ISO)
100
AcDbVertex
100
AcDb2dVertex
 10
661.5370272750692
 20
297.0184222236635
 30
0.0
  0
VERTEX
  5
365
330
34C
100
AcDbEntity
  8
Sichtbar (ISO)
100
AcDbVertex
100
AcDb2dVertex
 10
661.5283750648337
 20
297.0101878419877
 30
0.0
  0
VERTEX
  5
366
330
34C
100
AcDbEntity
  8
Sichtbar (ISO)
100
AcDbVertex
100
AcDb2dVertex
 10
661.5197633857564
 20
297.0018855110169
 30
0.0
  0
SEQEND
  5
34F
330
34C
100
AcDbEntity
  8
Sichtbar (ISO)
  0
POLYLINE
  5
367
330
75
100
AcDbEntity
  8
Sichtbar (ISO)
100
AcDb2dPolyline
 66
     1
 10
0.0
 20
0.0
 30
0.0
 70
   128
  0
VERTEX
  5
368
330
367
100
AcDbEntity
  8
Sichtbar (ISO)
100
AcDbVertex
100
AcDb2dVertex
 10
682.9756187553243
 20
297.0018855110169
 30
0.0
  0
VERTEX
  5
369
330
367
100
AcDbEntity
  8
Sichtbar (ISO)
100
AcDbVertex
100
AcDb2dVertex
 10
682.9670070762472
 20
297.0101878419877
 30
0.0
  0
VERTEX
  5
36B
330
367
100
AcDbEntity
  8
Sichtbar (ISO)
100
AcDbVertex
100
AcDb2dVertex
 10
682.9583524818258
 20
297.0184222236635
 30
0.0
  0
VERTEX
  5
36C
330
367
100
AcDbEntity
  8
Sichtbar (ISO)
100
AcDbVertex
100
AcDb2dVertex
 10
682.9496597404316
 20
297.0265892520906
 30
0.0
  0
VERTEX
  5
36D
330
367
100
AcDbEntity
  8
Sichtbar (ISO)
100
AcDbVertex
100
AcDb2dVertex
 10
682.9409193153217
 20
297.0346883312227
 30
0.0
  0
VERTEX
  5
36E
330
367
100
AcDbEntity
  8
Sichtbar (ISO)
100
AcDbVertex
100
AcDb2dVertex
 10
682.9321407432392
 20
297.0427188650132
 30
0.0
  0
VERTEX
  5
36F
330
367
100
AcDbEntity
  8
Sichtbar (ISO)
100
AcDbVertex
100
AcDb2dVertex
 10
682.9233192558125
 20
297.0506808534623
 30
0.0
  0
VERTEX
  5
370
330
367
100
AcDbEntity
  8
Sichtbar (ISO)
100
AcDbVertex
100
AcDb2dVertex
 10
682.9144548530415
 20
297.0585748926164
 30
0.0
  0
VERTEX
  5
371
330
367
100
AcDbEntity
  8
Sichtbar (ISO)
100
AcDbVertex
100
AcDb2dVertex
 10
682.9055523032979
 20
297.066399194336
 30
0.0
  0
VERTEX
  5
372
330
367
100
AcDbEntity
  8
Sichtbar (ISO)
100
AcDbVertex
100
AcDb2dVertex
 10
682.8966020698384
 20
297.0741549507142
 30
0.0
  0
VERTEX
  5
373
330
367
100
AcDbEntity
  8
Sichtbar (ISO)
100
AcDbVertex
100
AcDb2dVertex
 10
682.8876184577779
 20
297.0818415657045
 30
0.0
  0
VERTEX
  5
374
330
367
100
AcDbEntity
  8
Sichtbar (ISO)
100
AcDbVertex
100
AcDb2dVertex
 10
682.8785871620015
 20
297.0894584432603
 30
0.0
  0
VERTEX
  5
375
330
367
100
AcDbEntity
  8
Sichtbar (ISO)
100
AcDbVertex
100
AcDb2dVertex
 10
682.869522487624
 20
297.0970061794282
 30
0.0
  0
VERTEX
  5
376
330
367
100
AcDbEntity
  8
Sichtbar (ISO)
100
AcDbVertex
100
AcDb2dVertex
 10
682.8604101295308
 20
297.1044835821153
 30
0.0
  0
VERTEX
  5
377
330
367
100
AcDbEntity
  8
Sichtbar (ISO)
100
AcDbVertex
100
AcDb2dVertex
 10
682.8512643928364
 20
297.1118906513215
 30
0.0
  0
VERTEX
  5
378
330
367
100
AcDbEntity
  8
Sichtbar (ISO)
100
AcDbVertex
100
AcDb2dVertex
 10
682.8420709724262
 20
297.1192279830934
 30
0.0
  0
VERTEX
  5
379
330
367
100
AcDbEntity
  8
Sichtbar (ISO)
100
AcDbVertex
100
AcDb2dVertex
 10
682.832844173415
 20
297.126494385338
 30
0.0
  0
VERTEX
  5
37A
330
367
100
AcDbEntity
  8
Sichtbar (ISO)
100
AcDbVertex
100
AcDb2dVertex
 10
682.8235744590596
 20
297.1336904541017
 30
0.0
  0
VERTEX
  5
37B
330
367
100
AcDbEntity
  8
Sichtbar (ISO)
100
AcDbVertex
100
AcDb2dVertex
 10
682.8142618293599
 20
297.1408149972917
 30
0.0
  0
VERTEX
  5
37C
330
367
100
AcDbEntity
  8
Sichtbar (ISO)
100
AcDbVertex
100
AcDb2dVertex
 10
682.8049158210591
 20
297.1478686109544
 30
0.0
  0
VERTEX
  5
37D
330
367
100
AcDbEntity
  8
Sichtbar (ISO)
100
AcDbVertex
100
AcDb2dVertex
 10
682.795526897414
 20
297.1548512950898
 30
0.0
  0
VERTEX
  5
37E
330
367
100
AcDbEntity
  8
Sichtbar (ISO)
100
AcDbVertex
100
AcDb2dVertex
 10
682.7860998267964
 20
297.1617624536516
 30
0.0
  0
VERTEX
  5
37F
330
367
100
AcDbEntity
  8
Sichtbar (ISO)
100
AcDbVertex
100
AcDb2dVertex
 10
682.7766346092061
 20
297.1686014905931
 30
0.0
  0
VERTEX
  5
380
330
367
100
AcDbEntity
  8
Sichtbar (ISO)
100
AcDbVertex
100
AcDb2dVertex
 10
682.7671264762715
 20
297.1753684059144
 30
0.0
  0
VERTEX
  5
381
330
367
100
AcDbEntity
  8
Sichtbar (ISO)
100
AcDbVertex
100
AcDb2dVertex
 10
682.7575849647359
 20
297.1820631996156
 30
0.0
  0
SEQEND
  5
36A
330
367
100
AcDbEntity
  8
Sichtbar (ISO)
  0
POLYLINE
  5
382
330
75
100
AcDbEntity
  8
Sichtbar (ISO)
100
AcDb2dPolyline
 66
     1
 10
0.0
 20
0.0
 30
0.0
 70
   128
  0
VERTEX
  5
383
330
382
100
AcDbEntity
  8
Sichtbar (ISO)
100
AcDbVertex
100
AcDb2dVertex
 10
682.7575277442768
 20
291.8236744776727
 30
0.0
  0
VERTEX
  5
384
330
382
100
AcDbEntity
  8
Sichtbar (ISO)
100
AcDbVertex
100
AcDb2dVertex
 10
682.7670787925557
 20
291.8303758278848
 30
0.0
  0
VERTEX
  5
386
330
382
100
AcDbEntity
  8
Sichtbar (ISO)
100
AcDbVertex
100
AcDb2dVertex
 10
682.7765964622334
 20
291.8371478096009
 30
0.0
  0
VERTEX
  5
387
330
382
100
AcDbEntity
  8
Sichtbar (ISO)
100
AcDbVertex
100
AcDb2dVertex
 10
682.7860712165669
 20
291.8439910188676
 30
0.0
  0
VERTEX
  5
388
330
382
100
AcDbEntity
  8
Sichtbar (ISO)
100
AcDbVertex
100
AcDb2dVertex
 10
682.7955078239277
 20
291.8509048596383
 30
0.0
  0
VERTEX
  5
389
330
382
100
AcDbEntity
  8
Sichtbar (ISO)
100
AcDbVertex
100
AcDb2dVertex
 10
682.804906284316
 20
291.8578890338899
 30
0.0
  0
VERTEX
  5
38A
330
382
100
AcDbEntity
  8
Sichtbar (ISO)
100
AcDbVertex
100
AcDb2dVertex
 10
682.8142618293599
 20
291.8649435416223
 30
0.0
  0
VERTEX
  5
38B
330
382
100
AcDbEntity
  8
Sichtbar (ISO)
100
AcDbVertex
100
AcDb2dVertex
 10
682.8235792274312
 20
291.8720680848123
 30
0.0
  0
VERTEX
  5
38C
330
382
100
AcDbEntity
  8
Sichtbar (ISO)
100
AcDbVertex
100
AcDb2dVertex
 10
682.8328584785298
 20
291.8792623654367
 30
0.0
  0
VERTEX
  5
38D
330
382
100
AcDbEntity
  8
Sichtbar (ISO)
100
AcDbVertex
100
AcDb2dVertex
 10
682.8420948142841
 20
291.8865260854722
 30
0.0
  0
VERTEX
  5
38E
330
382
100
AcDbEntity
  8
Sichtbar (ISO)
100
AcDbVertex
100
AcDb2dVertex
 10
682.8512882346943
 20
291.8938592449189
 30
0.0
  0
VERTEX
  5
38F
330
382
100
AcDbEntity
  8
Sichtbar (ISO)
100
AcDbVertex
100
AcDb2dVertex
 10
682.8604435081318
 20
291.9012615457536
 30
0.0
  0
VERTEX
  5
390
330
382
100
AcDbEntity
  8
Sichtbar (ISO)
100
AcDbVertex
100
AcDb2dVertex
 10
682.8695558662251
 20
291.9087326899529
 30
0.0
  0
VERTEX
  5
391
330
382
100
AcDbEntity
  8
Sichtbar (ISO)
100
AcDbVertex
100
AcDb2dVertex
 10
682.8786300773457
 20
291.916272677517
 30
0.0
  0
VERTEX
  5
392
330
382
100
AcDbEntity
  8
Sichtbar (ISO)
100
AcDbVertex
100
AcDb2dVertex
 10
682.8876613731221
 20
291.9238809123994
 30
0.0
  0
VERTEX
  5
393
330
382
100
AcDbEntity
  8
Sichtbar (ISO)
100
AcDbVertex
100
AcDb2dVertex
 10
682.8966497535542
 20
291.9315573946
 30
0.0
  0
VERTEX
  5
394
330
382
100
AcDbEntity
  8
Sichtbar (ISO)
100
AcDbVertex
100
AcDb2dVertex
 10
682.9055999870137
 20
291.9393021241189
 30
0.0
  0
VERTEX
  5
395
330
382
100
AcDbEntity
  8
Sichtbar (ISO)
100
AcDbVertex
100
AcDb2dVertex
 10
682.9145025367573
 20
291.9471145049096
 30
0.0
  0
VERTEX
  5
396
330
382
100
AcDbEntity
  8
Sichtbar (ISO)
100
AcDbVertex
100
AcDb2dVertex
 10
682.9233669395283
 20
291.9549945369722
 30
0.0
  0
VERTEX
  5
397
330
382
100
AcDbEntity
  8
Sichtbar (ISO)
100
AcDbVertex
100
AcDb2dVertex
 10
682.9321884269551
 20
291.96294162426
 30
0.0
  0
VERTEX
  5
398
330
382
100
AcDbEntity
  8
Sichtbar (ISO)
100
AcDbVertex
100
AcDb2dVertex
 10
682.9409669990376
 20
291.9709560647966
 30
0.0
  0
VERTEX
  5
399
330
382
100
AcDbEntity
  8
Sichtbar (ISO)
100
AcDbVertex
100
AcDb2dVertex
 10
682.9497026557759
 20
291.9790375605584
 30
0.0
  0
VERTEX
  5
39A
330
382
100
AcDbEntity
  8
Sichtbar (ISO)
100
AcDbVertex
100
AcDb2dVertex
 10
682.9583953971701
 20
291.9871855154992
 30
0.0
  0
VERTEX
  5
39B
330
382
100
AcDbEntity
  8
Sichtbar (ISO)
100
AcDbVertex
100
AcDb2dVertex
 10
682.9670452232199
 20
291.9953999296189
 30
0.0
  0
VERTEX
  5
39C
330
382
100
AcDbEntity
  8
Sichtbar (ISO)
100
AcDbVertex
100
AcDb2dVertex
 10
682.9756473655538
 20
292.0036808029176
 30
0.0
  0
SEQEND
  5
385
330
382
100
AcDbEntity
  8
Sichtbar (ISO)
  0
CIRCLE
  5
39D
330
75
100
AcDbEntity
  8
Sichtbar (ISO)
100
AcDbCircle
 10
672.247690293114
 20
335.4028091337039
 30
0.0
 40
15.1455
  0
CIRCLE
  5
39E
330
75
100
AcDbEntity
  8
Sichtbar (ISO)
100
AcDbCircle
 10
672.2476902931135
 20
335.4028091337039
 30
0.0
 40
16.7455
  0
LINE
  5
39F
330
75
100
AcDbEntity
  8
Sichtbar (ISO)
100
AcDbLine
 10
692.4549497147504
 20
355.902809133704
 30
0.0
 11
652.0404308714766
 21
355.902809133704
 31
0.0
  0
LINE
  5
3A0
330
75
100
AcDbEntity
  8
Sichtbar (ISO)
100
AcDbLine
 10
652.0404308714766
 20
306.4028091337039
 30
0.0
 11
652.0404308714766
 21
355.902809133704
 31
0.0
  0
LINE
  5
3A1
330
75
100
AcDbEntity
  8
Sichtbar (ISO)
100
AcDbLine
 10
692.4549497147504
 20
306.402809133704
 30
0.0
 11
652.0404308714766
 21
306.4028091337039
 31
0.0
  0
LINE
  5
3A2
330
75
100
AcDbEntity
  8
Sichtbar (ISO)
100
AcDbLine
 10
692.4549497147504
 20
306.402809133704
 30
0.0
 11
692.4549497147504
 21
355.902809133704
 31
0.0
  0
LINE
  5
3A3
330
75
100
AcDbEntity
  8
Sichtbar (ISO)
100
AcDbLine
 10
652.0404308714766
 20
355.902809133704
 30
0.0
 11
631.8331714498501
 21
355.902809133704
 31
0.0
  0
LINE
  5
3A4
330
75
100
AcDbEntity
  8
Sichtbar (ISO)
100
AcDbLine
 10
712.6622091363977
 20
355.902809133704
 30
0.0
 11
692.4549497147504
 21
355.902809133704
 31
0.0
  0
LINE
  5
3A5
330
75
100
AcDbEntity
  8
Sichtbar (ISO)
100
AcDbLine
 10
712.6622091363977
 20
306.4028091337039
 30
0.0
 11
692.4549497147504
 21
306.402809133704
 31
0.0
  0
LINE
  5
3A6
330
75
100
AcDbEntity
  8
Sichtbar (ISO)
100
AcDbLine
 10
712.6622091363977
 20
306.4028091337039
 30
0.0
 11
712.6622091363977
 21
355.902809133704
 31
0.0
  0
LINE
  5
3A7
330
75
100
AcDbEntity
  8
Sichtbar (ISO)
100
AcDbLine
 10
649.5000968375781
 20
344.4028091337039
 30
0.0
 11
649.5000968375782
 21
318.4028091337039
 31
0.0
  0
LINE
  5
3A8
330
75
100
AcDbEntity
  8
Sichtbar (ISO)
100
AcDbLine
 10
631.8331714498501
 20
306.4028091337039
 30
0.0
 11
631.8331714498501
 21
355.902809133704
 31
0.0
  0
LINE
  5
3A9
330
75
100
AcDbEntity
  8
Sichtbar (ISO)
100
AcDbLine
 10
652.0404308714766
 20
306.4028091337039
 30
0.0
 11
631.8331714498501
 21
306.4028091337039
 31
0.0
  0
LINE
  5
3AA
330
75
100
AcDbEntity
  8
Sichtbar (ISO)
100
AcDbLine
 10
634.4481353133589
 20
318.4028091337038
 30
0.0
 11
634.4481353133589
 21
344.4028091337039
 31
0.0
  0
LINE
  5
3AB
330
75
100
AcDbEntity
  8
Sichtbar (ISO)
100
AcDbLine
 10
648.4481353133515
 20
316.4028091337038
 30
0.0
 11
635.4481353133583
 21
316.4028091337038
 31
0.0
  0
LINE
  5
3AC
330
75
100
AcDbEntity
  8
Sichtbar (ISO)
100
AcDbLine
 10
649.4481353133511
 20
344.4028091337039
 30
0.0
 11
649.4481353133511
 21
318.4028091337039
 31
0.0
  0
LINE
  5
3AD
330
75
100
AcDbEntity
  8
Sichtbar (ISO)
100
AcDbLine
 10
635.4481353133583
 20
346.4028091337039
 30
0.0
 11
648.4481353133515
 21
346.4028091337039
 31
0.0
  0
LINE
  5
3AE
330
75
100
AcDbEntity
  8
Sichtbar schmal (ISO)
100
AcDbLine
 10
642.4426902931253
 20
357.1028091337039
 30
0.0
 11
702.0526902931254
 21
357.1028091337039
 31
0.0
  0
ARC
  5
3AF
330
75
100
AcDbEntity
  8
Sichtbar (ISO)
100
AcDbCircle
 10
641.2426902931254
 20
357.1028091337039
 30
0.0
 40
1.199999999999999
100
AcDbArc
 50
270.0
 51
0.0
  0
ARC
  5
3B0
330
75
100
AcDbEntity
  8
Sichtbar (ISO)
100
AcDbCircle
 10
703.2526902931254
 20
357.1028091337039
 30
0.0
 40
1.199999999999999
100
AcDbArc
 50
180.0
 51
270.0
  0
LINE
  5
3B1
330
75
100
AcDbEntity
  8
Sichtbar (ISO)
100
AcDbLine
 10
702.0526902931254
 20
381.8028091337039
 30
0.0
 11
642.4426902931253
 21
381.8028091337039
 31
0.0
  0
LINE
  5
3B2
330
75
100
AcDbEntity
  8
Sichtbar (ISO)
100
AcDbLine
 10
644.0426902931254
 20
383.402809133704
 30
0.0
 11
700.4526902931253
 21
383.402809133704
 31
0.0
  0
LINE
  5
3B3
330
75
100
AcDbEntity
  8
Sichtbar (ISO)
100
AcDbLine
 10
700.4526902931253
 20
383.402809133704
 30
0.0
 11
702.0526902931254
 21
381.8028091337039
 31
0.0
  0
LINE
  5
3B4
330
75
100
AcDbEntity
  8
Sichtbar (ISO)
100
AcDbLine
 10
644.0426902931254
 20
383.402809133704
 30
0.0
 11
642.4426902931254
 21
381.8028091337039
 31
0.0
  0
ELLIPSE
  5
3B5
330
75
100
AcDbEntity
  8
Sichtbar (ISO)
100
AcDbEllipse
 10
648.5000968375786
 20
344.402809133704
 30
0.0
 11
-0.0000000000000151
 21
1.999999999999984
 31
0.0
210
0.0
220
0.0
230
1.0
 40
0.4999999999997399
 41
4.712388980384686
 42
6.283185307179601
  0
ELLIPSE
  5
3B6
330
75
100
AcDbEntity
  8
Sichtbar (ISO)
100
AcDbEllipse
 10
648.5000968375786
 20
318.4028091337038
 30
0.0
 11
-0.0000000000000077
 21
-1.99999999999998
 31
0.0
210
0.0
220
0.0
230
1.0
 40
0.4999999999997365
 41
0.0
 42
1.570796326794933
  0
ELLIPSE
  5
3B7
330
75
100
AcDbEntity
  8
Sichtbar (ISO)
100
AcDbEllipse
 10
635.4481353133584
 20
344.4028091337039
 30
0.0
 11
0.0000000000000015
 21
2.00000000000001
 31
0.0
210
0.0
220
0.0
230
1.0
 40
0.4999999999997434
 41
0.0
 42
1.570796326794896
  0
ELLIPSE
  5
3B8
330
75
100
AcDbEntity
  8
Sichtbar (ISO)
100
AcDbEllipse
 10
648.4481353133515
 20
318.4028091337038
 30
0.0
 11
-0.0000000000000061
 21
-1.999999999999979
 31
0.0
210
0.0
220
0.0
230
1.0
 40
0.4999999999997355
 41
0.0
 42
1.570796326794933
  0
LINE
  5
3B9
330
75
100
AcDbEntity
  8
Sichtbar (ISO)
100
AcDbLine
 10
648.4481353133515
 20
316.4028091337038
 30
0.0
 11
648.5000968375787
 21
316.4028091337039
 31
0.0
  0
LINE
  5
3BA
330
75
100
AcDbEntity
  8
Sichtbar schmal (ISO)
100
AcDbLine
 10
649.5000968375782
 20
318.4028091337039
 30
0.0
 11
649.4481353133511
 21
318.4028091337039
 31
0.0
  0
ELLIPSE
  5
3BB
330
75
100
AcDbEntity
  8
Sichtbar (ISO)
100
AcDbEllipse
 10
635.4481353133584
 20
318.4028091337039
 30
0.0
 11
-0.0000000000000178
 21
-2.000000000000015
 31
0.0
210
0.0
220
0.0
230
1.0
 40
0.4999999999997441
 41
4.712388980384747
 42
6.283185307179619
  0
ELLIPSE
  5
3BC
330
75
100
AcDbEntity
  8
Sichtbar (ISO)
100
AcDbEllipse
 10
648.4481353133515
 20
344.4028091337039
 30
0.0
 11
-0.0000000000000262
 21
1.999999999999966
 31
0.0
210
0.0
220
0.0
230
1.0
 40
0.4999999999997357
 41
4.712388980384647
 42
6.283185307179559
  0
LINE
  5
3BD
330
75
100
AcDbEntity
  8
Sichtbar schmal (ISO)
100
AcDbLine
 10
649.4481353133511
 20
344.4028091337039
 30
0.0
 11
649.5000968375781
 21
344.4028091337039
 31
0.0
  0
LINE
  5
3BE
330
75
100
AcDbEntity
  8
Sichtbar (ISO)
100
AcDbLine
 10
648.5000968375787
 20
346.4028091337039
 30
0.0
 11
648.4481353133515
 21
346.4028091337039
 31
0.0
  0
LINE
  5
3BF
330
75
100
AcDbEntity
  8
Sichtbar (ISO)
100
AcDbLine
 10
660.2476902931279
 20
277.0028091337039
 30
0.0
 11
684.247690293128
 21
277.0028091337039
 31
0.0
  0
ARC
  5
3C0
330
75
100
AcDbEntity
  8
Sichtbar (ISO)
100
AcDbCircle
 10
672.247690293128
 20
261.0028091337039
 30
0.0
 40
20.00000000000001
100
AcDbArc
 50
126.869897645844
 51
53.13010235415588
  0
ELLIPSE
  5
3C1
330
75
100
AcDbEntity
  8
Sichtbar (ISO)
100
AcDbEllipse
 10
639.5712765160522
 20
294.5028091337039
 30
0.0
 11
-0.0000000000000013
 21
2.5
 31
0.0
210
0.0
220
0.0
230
1.0
 40
0.499999999999743
 41
0.0
 42
6.283185307179585
  0
LINE
  5
3C2
330
75
100
AcDbEntity
  8
Sichtbar (ISO)
100
AcDbLine
 10
629.0447303338588
 20
292.0028091337039
 30
0.0
 11
629.0447303338588
 21
297.0028091337039
 31
0.0
  0
ELLIPSE
  5
3C3
330
75
100
AcDbEntity
  8
Sichtbar schmal (ISO)
100
AcDbEllipse
 10
696.6374979542287
 20
294.5028091337039
 30
0.0
 11
0.0000000000000094
 21
2.499999999999997
 31
0.0
210
0.0
220
0.0
230
1.0
 40
0.9063077870367756
 41
0.0000000000000024
 42
3.141592653589795
  0
ELLIPSE
  5
3C4
330
75
100
AcDbEntity
  8
Sichtbar schmal (ISO)
100
AcDbEllipse
 10
690.3895025228154
 20
294.5028091337039
 30
0.0
 11
0.0000000000000094
 21
2.5
 31
0.0
210
0.0
220
0.0
230
1.0
 40
0.9063077870367756
 41
0.0000000000000024
 42
3.141592653589795
  0
ELLIPSE
  5
3C5
330
75
100
AcDbEntity
  8
Sichtbar schmal (ISO)
100
AcDbEllipse
 10
679.546017568082
 20
294.5028091337039
 30
0.0
 11
0.0000000000000006
 21
2.5
 31
0.0
210
0.0
220
0.0
230
1.0
 40
0.4491278323048943
 41
3.141592653589808
 42
6.283185307179601
  0
ELLIPSE
  5
3C6
330
75
100
AcDbEntity
  8
Sichtbar schmal (ISO)
100
AcDbEllipse
 10
663.961304587858
 20
294.5028091337039
 30
0.0
 11
0.0000000000000006
 21
2.5
 31
0.0
210
0.0
220
0.0
230
1.0
 40
0.5099314280165722
 41
0.0000000000000011
 42
3.141592653589794
  0
ELLIPSE
  5
3C7
330
75
100
AcDbEntity
  8
Sichtbar schmal (ISO)
100
AcDbEllipse
 10
656.8917845917439
 20
294.5028091337039
 30
0.0
 11
0.0000000000000006
 21
2.5
 31
0.0
210
0.0
220
0.0
230
1.0
 40
0.4999999999997432
 41
3.141592653589793
 42
6.283185307179586
  0
LINE
  5
3C8
330
75
100
AcDbEntity
  8
Sichtbar (ISO)
100
AcDbLine
 10
629.0447303338588
 20
297.0028091337039
 30
0.0
 11
639.571276516057
 21
297.0028091337039
 31
0.0
  0
LINE
  5
3C9
330
75
100
AcDbEntity
  8
Sichtbar (ISO)
100
AcDbLine
 10
629.0447303338588
 20
292.0028091337039
 30
0.0
 11
639.571276516057
 21
292.0028091337039
 31
0.0
  0
ARC
  5
3CA
330
75
100
AcDbEntity
  8
Sichtbar (ISO)
100
AcDbCircle
 10
729.0447303338538
 20
294.5028091337039
 30
0.0
 40
2.5
100
AcDbArc
 50
270.0
 51
90.0
  0
LINE
  5
3CB
330
75
100
AcDbEntity
  8
Sichtbar (ISO)
100
AcDbLine
 10
696.6374979542286
 20
292.0028091337039
 30
0.0
 11
729.0447303338538
 21
292.0028091337039
 31
0.0
  0
LINE
  5
3CC
330
75
100
AcDbEntity
  8
Sichtbar (ISO)
100
AcDbLine
 10
729.0447303338538
 20
297.0028091337039
 30
0.0
 11
696.6374979542286
 21
297.0028091337039
 31
0.0
  0
LINE
  5
3CD
330
75
100
AcDbEntity
  8
Sichtbar (ISO)
100
AcDbLine
 10
696.6374979542287
 20
292.0028091337039
 30
0.0
 11
690.3895025228154
 21
292.0028091337039
 31
0.0
  0
LINE
  5
3CE
330
75
100
AcDbEntity
  8
Sichtbar (ISO)
100
AcDbLine
 10
696.6374979542287
 20
297.0028091337039
 30
0.0
 11
690.3895025228154
 21
297.0028091337039
 31
0.0
  0
LINE
  5
3CF
330
75
100
AcDbEntity
  8
Sichtbar (ISO)
100
AcDbLine
 10
690.3895025228154
 20
297.0028091337039
 30
0.0
 11
679.546017568082
 21
297.0028091337039
 31
0.0
  0
LINE
  5
3D0
330
75
100
AcDbEntity
  8
Sichtbar (ISO)
100
AcDbLine
 10
679.546017568082
 20
292.0028091337039
 30
0.0
 11
690.3895025228154
 21
292.0028091337039
 31
0.0
  0
LINE
  5
3D1
330
75
100
AcDbEntity
  8
Sichtbar (ISO)
100
AcDbLine
 10
663.961304587858
 20
292.0028091337039
 30
0.0
 11
679.546017568082
 21
292.0028091337039
 31
0.0
  0
LINE
  5
3D2
330
75
100
AcDbEntity
  8
Sichtbar (ISO)
100
AcDbLine
 10
679.5460175680818
 20
297.002809133704
 30
0.0
 11
663.961304587858
 21
297.002809133704
 31
0.0
  0
LINE
  5
3D3
330
75
100
AcDbEntity
  8
Sichtbar (ISO)
100
AcDbLine
 10
663.961304587858
 20
297.0028091337039
 30
0.0
 11
656.8917845917439
 21
297.0028091337039
 31
0.0
  0
LINE
  5
3D4
330
75
100
AcDbEntity
  8
Sichtbar (ISO)
100
AcDbLine
 10
656.8917845917439
 20
292.0028091337039
 30
0.0
 11
663.961304587858
 21
292.0028091337039
 31
0.0
  0
LINE
  5
3D5
330
75
100
AcDbEntity
  8
Sichtbar (ISO)
100
AcDbLine
 10
656.8917845917439
 20
292.0028091337039
 30
0.0
 11
639.5712765160522
 21
292.0028091337039
 31
0.0
  0
LINE
  5
3D6
330
75
100
AcDbEntity
  8
Sichtbar (ISO)
100
AcDbLine
 10
656.8917845917439
 20
297.0028091337039
 30
0.0
 11
639.5712765160522
 21
297.0028091337039
 31
0.0
  0
LINE
  5
3D7
330
75
100
AcDbEntity
  8
Sichtbar (ISO)
100
AcDbLine
 10
655.7476902931279
 20
383.402809133704
 30
0.0
 11
655.7476902931279
 21
739.5028091337032
 31
0.0
  0
LINE
  5
3D8
330
75
100
AcDbEntity
  8
Sichtbar (ISO)
100
AcDbLine
 10
688.747690293128
 20
383.402809133704
 30
0.0
 11
688.747690293128
 21
739.5028091337032
 31
0.0
  0
LINE
  5
3D9
330
75
100
AcDbEntity
  8
Sichtbar (ISO)
100
AcDbLine
 10
642.4426902931254
 20
357.1028091337039
 30
0.0
 11
642.4426902931254
 21
381.8028091337039
 31
0.0
  0
LINE
  5
3DA
330
75
100
AcDbEntity
  8
Sichtbar (ISO)
100
AcDbLine
 10
702.0526902931254
 20
357.1028091337039
 30
0.0
 11
702.0526902931254
 21
381.8028091337039
 31
0.0
  0
LINE
  5
3DB
330
75
100
AcDbEntity
  8
Sichtbar (ISO)
100
AcDbLine
 10
676.247690293128
 20
287.5028091337039
 30
0.0
 11
676.247690293128
 21
277.0028091337039
 31
0.0
  0
LINE
  5
3DC
330
75
100
AcDbEntity
  8
Sichtbar (ISO)
100
AcDbLine
 10
668.247690293128
 20
287.5028091337039
 30
0.0
 11
668.2476902931279
 21
277.0028091337039
 31
0.0
  0
ARC
  5
3DD
330
75
100
AcDbEntity
  8
Sichtbar schmal (ISO)
100
AcDbCircle
 10
672.2476902931134
 20
335.4028091337039
 30
0.0
 40
16.62449999999997
100
AcDbArc
 50
350.0000000000019
 51
259.9999999999512
  0
LINE
  5
3DE
330
75
100
AcDbEntity
  8
Sichtbar schmal (ISO)
100
AcDbLine
 10
643.9216902931254
 20
383.2818091337039
 30
0.0
 11
643.9216902931254
 21
359.4028091337039
 31
0.0
  0
LINE
  5
3DF
330
75
100
AcDbEntity
  8
Sichtbar schmal (ISO)
100
AcDbLine
 10
700.5736902931253
 20
359.4028091337039
 30
0.0
 11
700.5736902931253
 21
383.2818091337039
 31
0.0
  0
LINE
  5
3E0
330
75
100
AcDbEntity
  8
Sichtbar (ISO)
100
AcDbLine
 10
702.0526902931254
 20
359.4028091337039
 30
0.0
 11
642.4426902931253
 21
359.4028091337039
 31
0.0
  0
LINE
  5
3E1
330
75
100
AcDbEntity
  8
Sichtbar schmal (ISO)
100
AcDbLine
 10
675.5036902931281
 20
277.0028091337039
 30
0.0
 11
675.5036902931281
 21
287.5028091337039
 31
0.0
  0
LINE
  5
3E2
330
75
100
AcDbEntity
  8
Sichtbar schmal (ISO)
100
AcDbLine
 10
668.991690293128
 20
287.5028091337039
 30
0.0
 11
668.991690293128
 21
277.0028091337039
 31
0.0
  0
CIRCLE
  5
3E3
330
75
100
AcDbEntity
  8
Sichtbar (ISO)
100
AcDbCircle
 10
417.8234878291515
 20
146.5778108323046
 30
0.0
 40
16.5
  0
CIRCLE
  5
3E4
330
75
100
AcDbEntity
  8
Sichtbar (ISO)
100
AcDbCircle
 10
417.8234878291515
 20
146.5778108323048
 30
0.0
 40
16.0
  0
CIRCLE
  5
3E5
330
75
100
AcDbEntity
  8
Sichtbar (ISO)
100
AcDbCircle
 10
417.8234878291515
 20
146.5778108323048
 30
0.0
 40
10.0
  0
LINE
  5
3E6
330
75
100
AcDbEntity
  8
Sichtbar (ISO)
100
AcDbLine
 10
427.6384418880815
 20
146.57781005489
 30
0.0
 11
422.7309649860734
 21
155.0778114854015
 31
0.0
  0
LINE
  5
3E7
330
75
100
AcDbEntity
  8
Sichtbar (ISO)
100
AcDbLine
 10
422.7309649860734
 20
138.0778086243785
 30
0.0
 11
427.6384418880815
 21
146.57781005489
 31
0.0
  0
LINE
  5
3E8
330
75
100
AcDbEntity
  8
Sichtbar (ISO)
100
AcDbLine
 10
412.9160087978715
 20
138.0778086243785
 30
0.0
 11
422.7309649860734
 21
138.0778086243785
 31
0.0
  0
LINE
  5
3E9
330
75
100
AcDbEntity
  8
Sichtbar (ISO)
100
AcDbLine
 10
408.0085342800492
 20
146.57781005489
 30
0.0
 11
412.9160087978715
 21
138.0778086243785
 31
0.0
  0
LINE
  5
3EA
330
75
100
AcDbEntity
  8
Sichtbar (ISO)
100
AcDbLine
 10
412.9160087978715
 20
155.0778114854015
 30
0.0
 11
408.0085342800492
 21
146.57781005489
 31
0.0
  0
LINE
  5
3EB
330
75
100
AcDbEntity
  8
Sichtbar (ISO)
100
AcDbLine
 10
422.7309649860734
 20
155.0778114854015
 30
0.0
 11
412.9160087978715
 21
155.0778114854015
 31
0.0
  0
ARC
  5
3EC
330
75
100
AcDbEntity
  8
Sichtbar (ISO)
100
AcDbCircle
 10
409.3234878291514
 20
146.5778108321795
 30
0.0
 40
23.99999999999999
100
AcDbArc
 50
22.84350731792469
 51
337.1564926820755
  0
CIRCLE
  5
3ED
330
75
100
AcDbEntity
  8
Sichtbar (ISO)
100
AcDbCircle
 10
409.3234878291514
 20
146.577810832199
 30
0.0
 40
26.0
  0
CIRCLE
  5
3EE
330
75
100
AcDbEntity
  8
Sichtbar (ISO)
100
AcDbCircle
 10
409.3234878291514
 20
146.5778108321987
 30
0.0
 40
25.0
  0
LINE
  5
3EF
330
75
100
AcDbEntity
  8
Sichtbar (ISO)
100
AcDbLine
 10
369.3234878291515
 20
126.3705514105539
 30
0.0
 11
369.3234878291515
 21
166.7850702538277
 31
0.0
  0
LINE
  5
3F0
330
75
100
AcDbEntity
  8
Sichtbar (ISO)
100
AcDbLine
 10
439.3234878291514
 20
166.7850702538276
 30
0.0
 11
439.3234878291514
 21
154.4078826709418
 31
0.0
  0
LINE
  5
3F1
330
75
100
AcDbEntity
  8
Sichtbar (ISO)
100
AcDbLine
 10
404.3234878291515
 20
186.9923296754646
 30
0.0
 11
439.3234878291514
 21
166.7850702538276
 31
0.0
  0
LINE
  5
3F2
330
75
100
AcDbEntity
  8
Sichtbar (ISO)
100
AcDbLine
 10
369.3234878291515
 20
166.7850702538277
 30
0.0
 11
404.3234878291515
 21
186.9923296754646
 31
0.0
  0
LINE
  5
3F3
330
75
100
AcDbEntity
  8
Sichtbar (ISO)
100
AcDbLine
 10
404.3234878291515
 20
106.163291988917
 30
0.0
 11
369.3234878291515
 21
126.3705514105539
 31
0.0
  0
LINE
  5
3F4
330
75
100
AcDbEntity
  8
Sichtbar (ISO)
100
AcDbLine
 10
439.3234878291514
 20
126.3705514105538
 30
0.0
 11
404.3234878291515
 21
106.163291988917
 31
0.0
  0
LINE
  5
3F5
330
75
100
AcDbEntity
  8
Sichtbar (ISO)
100
AcDbLine
 10
439.3234878291514
 20
138.7477389934398
 30
0.0
 11
439.3234878291514
 21
126.3705514105538
 31
0.0
  0
LINE
  5
3F6
330
75
100
AcDbEntity
  8
Sichtbar (ISO)
100
AcDbLine
 10
397.9421867500268
 20
183.3773658119516
 30
0.0
 11
375.4255262516314
 21
170.3773658119517
 31
0.0
  0
LINE
  5
3F7
330
75
100
AcDbEntity
  8
Sichtbar (ISO)
100
AcDbLine
 10
439.3234878456468
 20
138.7477409896822
 30
0.0
 11
439.3234878456468
 21
154.407881504056
 31
0.0
  0
ARC
  5
3F8
330
75
100
AcDbEntity
  8
Sichtbar schmal (ISO)
100
AcDbCircle
 10
409.3234878291515
 20
146.5778108321908
 30
0.0
 40
31.00499999999998
100
AcDbArc
 50
14.62799940095523
 51
345.3720005990446
  0
CIRCLE
  5
3F9
330
75
100
AcDbEntity
  8
Sichtbar (ISO)
100
AcDbCircle
 10
409.3234878291514
 20
146.5778108321985
 30
0.0
 40
29.805
  0
CIRCLE
  5
3FA
330
75
100
AcDbEntity
  8
Sichtbar (ISO)
100
AcDbCircle
 10
409.3234878291514
 20
146.577810832199
 30
0.0
 40
28.205
  0
LINE
  5
3FB
330
75
100
AcDbEntity
  8
Sichtbar (ISO)
100
AcDbLine
 10
397.9421867500268
 20
183.3773658119516
 30
0.0
 11
399.6742375575957
 21
184.3773658119511
 31
0.0
  0
LINE
  5
3FC
330
75
100
AcDbEntity
  8
Sichtbar schmal (ISO)
100
AcDbLine
 10
397.9421867500268
 20
183.3773658119516
 30
0.0
 11
397.9721867500268
 21
183.3254042877246
 31
0.0
  0
LINE
  5
3FD
330
75
100
AcDbEntity
  8
Sichtbar (ISO)
100
AcDbLine
 10
399.7042375575956
 20
184.325404287724
 30
0.0
 11
399.6742375575957
 21
184.3773658119511
 31
0.0
  0
LINE
  5
3FE
330
75
100
AcDbEntity
  8
Sichtbar (ISO)
100
AcDbLine
 10
373.6934754440625
 20
169.3773658119511
 30
0.0
 11
375.4255262516314
 21
170.3773658119517
 31
0.0
  0
LINE
  5
3FF
330
75
100
AcDbEntity
  8
Sichtbar (ISO)
100
AcDbLine
 10
373.6934754440625
 20
169.3773658119511
 30
0.0
 11
373.7234754440625
 21
169.325404287724
 31
0.0
  0
LINE
  5
400
330
75
100
AcDbEntity
  8
Sichtbar schmal (ISO)
100
AcDbLine
 10
375.4555262516314
 20
170.3254042877246
 30
0.0
 11
375.4255262516314
 21
170.3773658119517
 31
0.0
  0
LINE
  5
401
330
75
100
AcDbEntity
  8
Sichtbar (ISO)
100
AcDbLine
 10
406.3234878291514
 20
189.7807707914389
 30
0.0
 11
411.3234878291514
 21
189.7807707914389
 31
0.0
  0
LINE
  5
402
330
75
100
AcDbEntity
  8
Sichtbar schmal (ISO)
100
AcDbLine
 10
411.3234878291515
 20
106.7807707914389
 30
0.0
 11
406.3234878291515
 21
106.7807707914389
 31
0.0
  0
LINE
  5
403
330
75
100
AcDbEntity
  8
Sichtbar (ISO)
100
AcDbLine
 10
411.3234878291514
 20
189.7807707914389
 30
0.0
 11
411.3234878291514
 21
182.950877791119
 31
0.0
  0
LINE
  5
404
330
75
100
AcDbEntity
  8
Sichtbar (ISO)
100
AcDbLine
 10
411.3234878291515
 20
110.2047438732262
 30
0.0
 11
411.3234878291515
 21
106.7807707914389
 31
0.0
  0
LINE
  5
405
330
75
100
AcDbEntity
  8
Sichtbar (ISO)
100
AcDbLine
 10
406.3234878291514
 20
189.7807707914389
 30
0.0
 11
406.3234878291514
 21
185.8376291370671
 31
0.0
  0
LINE
  5
406
330
75
100
AcDbEntity
  8
Sichtbar (ISO)
100
AcDbLine
 10
406.3234878291515
 20
107.317992527278
 30
0.0
 11
406.3234878291515
 21
106.7807707914389
 31
0.0
  0
ARC
  5
407
330
75
100
AcDbEntity
  8
Sichtbar (ISO)
100
AcDbCircle
 10
391.8234878291515
 20
106.7807707914389
 30
0.0
 40
19.5
100
AcDbArc
 50
132.9569818326886
 51
0.0
  0
ARC
  5
408
330
75
100
AcDbEntity
  8
Sichtbar (ISO)
100
AcDbCircle
 10
391.8234878291515
 20
106.7807707914389
 30
0.0
 40
14.5
100
AcDbArc
 50
126.7867152725902
 51
0.0
  0
ARC
  5
409
330
75
100
AcDbEntity
  8
Sichtbar schmal (ISO)
100
AcDbCircle
 10
417.8234878291513
 20
146.5778108323048
 30
0.0
 40
14.99999999999994
100
AcDbArc
 50
350.000000000002
 51
259.9999999999511
  0
ARC
  5
40A
330
75
100
AcDbEntity
  8
Sichtbar schmal (ISO)
100
AcDbCircle
 10
409.3234878291514
 20
146.5778108321989
 30
0.0
 40
28.32599999999996
100
AcDbArc
 50
350.0000000000019
 51
259.9999999999511
  0
ARC
  5
40B
330
75
100
AcDbEntity
  8
Sichtbar schmal (ISO)
100
AcDbCircle
 10
417.8234878291513
 20
146.5778108321795
 30
0.0
 40
16.62449999999996
100
AcDbArc
 50
36.43424133701339
 51
259.9999999999512
  0
LINE
  5
40C
330
75
100
AcDbEntity
  8
Sichtbar (ISO)
100
AcDbLine
 10
967.4181400021435
 20
739.5028091337035
 30
0.0
 11
934.4181400021433
 21
739.5028091337035
 31
0.0
  0
LINE
  5
40D
330
75
100
AcDbEntity
  8
Sichtbar (ISO)
100
AcDbLine
 10
934.9181400021434
 20
740.0028091337035
 30
0.0
 11
966.9181400021432
 21
740.0028091337035
 31
0.0
  0
LINE
  5
40E
330
75
100
AcDbEntity
  8
Sichtbar (ISO)
100
AcDbLine
 10
966.9181400021432
 20
740.0028091337035
 30
0.0
 11
967.4181400021433
 21
739.5028091337035
 31
0.0
  0
LINE
  5
40F
330
75
100
AcDbEntity
  8
Sichtbar (ISO)
100
AcDbLine
 10
934.9181400021434
 20
740.0028091337035
 30
0.0
 11
934.4181400021433
 21
739.5028091337035
 31
0.0
  0
POLYLINE
  5
410
330
75
100
AcDbEntity
  8
Sichtbar (ISO)
100
AcDb2dPolyline
 66
     1
 10
0.0
 20
0.0
 30
0.0
 70
   128
  0
VERTEX
  5
411
330
410
100
AcDbEntity
  8
Sichtbar (ISO)
100
AcDbVertex
100
AcDb2dVertex
 10
956.9181387935472
 20
294.502809383011
 30
0.0
  0
VERTEX
  5
412
330
410
100
AcDbEntity
  8
Sichtbar (ISO)
100
AcDbVertex
100
AcDb2dVertex
 10
957.0522921596362
 20
293.6170444265367
 30
0.0
  0
VERTEX
  5
414
330
410
100
AcDbEntity
  8
Sichtbar (ISO)
100
AcDbVertex
100
AcDb2dVertex
 10
957.4426644359425
 20
292.8095031157495
 30
0.0
  0
VERTEX
  5
415
330
410
100
AcDbEntity
  8
Sichtbar (ISO)
100
AcDbVertex
100
AcDb2dVertex
 10
958.0060236965016
 20
292.1919402853013
 30
0.0
  0
VERTEX
  5
416
330
410
100
AcDbEntity
  8
Sichtbar (ISO)
100
AcDbVertex
100
AcDb2dVertex
 10
958.699278167327
 20
291.7616391554834
 30
0.0
  0
VERTEX
  5
417
330
410
100
AcDbEntity
  8
Sichtbar (ISO)
100
AcDbVertex
100
AcDb2dVertex
 10
959.4449131999812
 20
291.5410688892366
 30
0.0
  0
VERTEX
  5
418
330
410
100
AcDbEntity
  8
Sichtbar (ISO)
100
AcDbVertex
100
AcDb2dVertex
 10
960.1549380336606
 20
291.5124151483537
 30
0.0
  0
VERTEX
  5
419
330
410
100
AcDbEntity
  8
Sichtbar (ISO)
100
AcDbVertex
100
AcDb2dVertex
 10
960.8415358577577
 20
291.6488811746599
 30
0.0
  0
VERTEX
  5
41A
330
410
100
AcDbEntity
  8
Sichtbar (ISO)
100
AcDbVertex
100
AcDb2dVertex
 10
961.4783709560247
 20
291.9407093897821
 30
0.0
  0
VERTEX
  5
41B
330
410
100
AcDbEntity
  8
Sichtbar (ISO)
100
AcDbVertex
100
AcDb2dVertex
 10
962.0257847820138
 20
292.368071116543
 30
0.0
  0
VERTEX
  5
41C
330
410
100
AcDbEntity
  8
Sichtbar (ISO)
100
AcDbVertex
100
AcDb2dVertex
 10
962.4703591380933
 20
292.9268992320062
 30
0.0
  0
VERTEX
  5
41D
330
410
100
AcDbEntity
  8
Sichtbar (ISO)
100
AcDbVertex
100
AcDb2dVertex
 10
962.7964394603591
 20
293.6571121588709
 30
0.0
  0
VERTEX
  5
41E
330
410
100
AcDbEntity
  8
Sichtbar (ISO)
100
AcDbVertex
100
AcDb2dVertex
 10
962.9181378398756
 20
294.502809383011
 30
0.0
  0
VERTEX
  5
41F
330
410
100
AcDbEntity
  8
Sichtbar (ISO)
100
AcDbVertex
100
AcDb2dVertex
 10
962.7964394603591
 20
295.348506309128
 30
0.0
  0
VERTEX
  5
420
330
410
100
AcDbEntity
  8
Sichtbar (ISO)
100
AcDbVertex
100
AcDb2dVertex
 10
962.4703591380933
 20
296.0787192359926
 30
0.0
  0
VERTEX
  5
421
330
410
100
AcDbEntity
  8
Sichtbar (ISO)
100
AcDbVertex
100
AcDb2dVertex
 10
962.0257847820138
 20
296.6375473514558
 30
0.0
  0
VERTEX
  5
422
330
410
100
AcDbEntity
  8
Sichtbar (ISO)
100
AcDbVertex
100
AcDb2dVertex
 10
961.4783709560247
 20
297.0649084821703
 30
0.0
  0
VERTEX
  5
423
330
410
100
AcDbEntity
  8
Sichtbar (ISO)
100
AcDbVertex
100
AcDb2dVertex
 10
960.8415358577577
 20
297.3567369953157
 30
0.0
  0
VERTEX
  5
424
330
410
100
AcDbEntity
  8
Sichtbar (ISO)
100
AcDbVertex
100
AcDb2dVertex
 10
960.1549380336606
 20
297.4932030216219
 30
0.0
  0
VERTEX
  5
425
330
410
100
AcDbEntity
  8
Sichtbar (ISO)
100
AcDbVertex
100
AcDb2dVertex
 10
959.4449131999812
 20
297.464549280739
 30
0.0
  0
VERTEX
  5
426
330
410
100
AcDbEntity
  8
Sichtbar (ISO)
100
AcDbVertex
100
AcDb2dVertex
 10
958.699278167327
 20
297.243978716469
 30
0.0
  0
VERTEX
  5
427
330
410
100
AcDbEntity
  8
Sichtbar (ISO)
100
AcDbVertex
100
AcDb2dVertex
 10
958.0060236965016
 20
296.8136778846742
 30
0.0
  0
VERTEX
  5
428
330
410
100
AcDbEntity
  8
Sichtbar (ISO)
100
AcDbVertex
100
AcDb2dVertex
 10
957.4426644359425
 20
296.1961153522493
 30
0.0
  0
VERTEX
  5
429
330
410
100
AcDbEntity
  8
Sichtbar (ISO)
100
AcDbVertex
100
AcDb2dVertex
 10
957.0522921596362
 20
295.3885737434389
 30
0.0
  0
VERTEX
  5
42A
330
410
100
AcDbEntity
  8
Sichtbar (ISO)
100
AcDbVertex
100
AcDb2dVertex
 10
956.9181387935472
 20
294.502809383011
 30
0.0
  0
SEQEND
  5
413
330
410
100
AcDbEntity
  8
Sichtbar (ISO)
  0
LINE
  5
42B
330
75
100
AcDbEntity
  8
Sichtbar (ISO)
100
AcDbLine
 10
936.1681400021435
 20
287.5028091337041
 30
0.0
 11
965.6681400021433
 21
287.5028091337041
 31
0.0
  0
LINE
  5
42C
330
75
100
AcDbEntity
  8
Sichtbar (ISO)
100
AcDbLine
 10
936.1681400021433
 20
287.5028091337041
 30
0.0
 11
936.1681400021433
 21
306.402809133704
 31
0.0
  0
LINE
  5
42D
330
75
100
AcDbEntity
  8
Sichtbar (ISO)
100
AcDbLine
 10
965.6681400021433
 20
287.5028091337041
 30
0.0
 11
965.6681400021433
 21
292.002809133704
 31
0.0
  0
LINE
  5
42E
330
75
100
AcDbEntity
  8
Sichtbar (ISO)
100
AcDbLine
 10
965.6681400021433
 20
297.002809133704
 30
0.0
 11
965.6681400021433
 21
306.402809133704
 31
0.0
  0
LINE
  5
42F
330
75
100
AcDbEntity
  8
Sichtbar (ISO)
100
AcDbLine
 10
999.4181400021314
 20
306.402809133704
 30
0.0
 11
999.4181400021314
 21
355.902809133704
 31
0.0
  0
LINE
  5
430
330
75
100
AcDbEntity
  8
Sichtbar (ISO)
100
AcDbLine
 10
964.4181400021194
 20
355.902809133704
 30
0.0
 11
929.4181400021313
 21
355.902809133704
 31
0.0
  0
LINE
  5
431
330
75
100
AcDbEntity
  8
Sichtbar (ISO)
100
AcDbLine
 10
999.4181400021314
 20
355.902809133704
 30
0.0
 11
964.4181400021194
 21
355.902809133704
 31
0.0
  0
LINE
  5
432
330
75
100
AcDbEntity
  8
Sichtbar (ISO)
100
AcDbLine
 10
929.4181400021313
 20
306.402809133704
 30
0.0
 11
929.4181400021313
 21
355.902809133704
 31
0.0
  0
LINE
  5
433
330
75
100
AcDbEntity
  8
Sichtbar (ISO)
100
AcDbLine
 10
969.0373902736768
 20
318.402809133704
 30
0.0
 11
969.0373902736768
 21
344.402809133704
 31
0.0
  0
LINE
  5
434
330
75
100
AcDbEntity
  8
Sichtbar (ISO)
100
AcDbLine
 10
964.4181400021194
 20
306.402809133704
 30
0.0
 11
964.4181400021194
 21
355.902809133704
 31
0.0
  0
LINE
  5
435
330
75
100
AcDbEntity
  8
Sichtbar (ISO)
100
AcDbLine
 10
999.4181400021314
 20
306.402809133704
 30
0.0
 11
964.4181400021194
 21
306.402809133704
 31
0.0
  0
LINE
  5
436
330
75
100
AcDbEntity
  8
Sichtbar (ISO)
100
AcDbLine
 10
964.4181400021194
 20
306.402809133704
 30
0.0
 11
929.4181400021313
 21
306.402809133704
 31
0.0
  0
LINE
  5
437
330
75
100
AcDbEntity
  8
Sichtbar (ISO)
100
AcDbLine
 10
969.0673902736767
 20
318.402809133704
 30
0.0
 11
969.0673902736767
 21
344.402809133704
 31
0.0
  0
LINE
  5
438
330
75
100
AcDbEntity
  8
Sichtbar (ISO)
100
AcDbLine
 10
993.3161015796494
 20
316.402809133704
 30
0.0
 11
970.7994410812462
 21
316.402809133704
 31
0.0
  0
LINE
  5
439
330
75
100
AcDbEntity
  8
Sichtbar (ISO)
100
AcDbLine
 10
995.0481523872189
 20
344.402809133704
 30
0.0
 11
995.0481523872189
 21
318.402809133704
 31
0.0
  0
LINE
  5
43A
330
75
100
AcDbEntity
  8
Sichtbar (ISO)
100
AcDbLine
 10
970.7994410812462
 20
346.402809133704
 30
0.0
 11
993.3161015796494
 21
346.402809133704
 31
0.0
  0
LINE
  5
43B
330
75
100
AcDbEntity
  8
Sichtbar schmal (ISO)
100
AcDbLine
 10
929.6131400021433
 20
357.102809133704
 30
0.0
 11
989.2231400021433
 21
357.102809133704
 31
0.0
  0
LINE
  5
43C
330
75
100
AcDbEntity
  8
Sichtbar (ISO)
100
AcDbLine
 10
929.4181399856482
 20
356.4470830932619
 30
0.0
 11
929.4181399856434
 21
355.9028068557741
 31
0.0
  0
ARC
  5
43D
330
75
100
AcDbEntity
  8
Sichtbar (ISO)
100
AcDbCircle
 10
928.4131400021433
 20
357.102809133704
 30
0.0
 40
1.199999999999999
100
AcDbArc
 50
326.8770597922574
 51
0.0
  0
ARC
  5
43E
330
75
100
AcDbEntity
  8
Sichtbar (ISO)
100
AcDbCircle
 10
990.4231400021433
 20
357.102809133704
 30
0.0
 40
1.199999999999999
100
AcDbArc
 50
180.0
 51
270.0
  0
LINE
  5
43F
330
75
100
AcDbEntity
  8
Sichtbar (ISO)
100
AcDbLine
 10
989.2231400021433
 20
381.8028091337039
 30
0.0
 11
929.6131400021433
 21
381.8028091337039
 31
0.0
  0
LINE
  5
440
330
75
100
AcDbEntity
  8
Sichtbar (ISO)
100
AcDbLine
 10
931.2131400021433
 20
383.402809133704
 30
0.0
 11
987.6231400021433
 21
383.402809133704
 31
0.0
  0
LINE
  5
441
330
75
100
AcDbEntity
  8
Sichtbar (ISO)
100
AcDbLine
 10
987.6231400021435
 20
383.402809133704
 30
0.0
 11
989.2231400021433
 21
381.8028091337039
 31
0.0
  0
LINE
  5
442
330
75
100
AcDbEntity
  8
Sichtbar (ISO)
100
AcDbLine
 10
931.2131400021433
 20
383.402809133704
 30
0.0
 11
929.6131400021433
 21
381.8028091337039
 31
0.0
  0
ELLIPSE
  5
443
330
75
100
AcDbEntity
  8
Sichtbar (ISO)
100
AcDbEllipse
 10
970.7694410812463
 20
318.402809133704
 30
0.0
 11
-0.0000000000000089
 21
-2.000000000000015
 31
0.0
210
0.0
220
0.0
230
1.0
 40
0.8660254037847332
 41
4.71238898038471
 42
6.283185307179596
  0
ELLIPSE
  5
444
330
75
100
AcDbEntity
  8
Sichtbar (ISO)
100
AcDbEllipse
 10
970.7694410812463
 20
344.402809133704
 30
0.0
 11
0.0000000000000119
 21
2.000000000000001
 31
0.0
210
0.0
220
0.0
230
1.0
 40
0.8660254037847339
 41
0.0
 42
1.570796326794901
  0
ELLIPSE
  5
445
330
75
100
AcDbEntity
  8
Sichtbar (ISO)
100
AcDbEllipse
 10
970.7994410812462
 20
344.402809133704
 30
0.0
 11
0.0000000000000199
 21
2.00000000000001
 31
0.0
210
0.0
220
0.0
230
1.0
 40
0.8660254037847348
 41
0.0
 42
1.570796326794905
  0
LINE
  5
446
330
75
100
AcDbEntity
  8
Sichtbar (ISO)
100
AcDbLine
 10
970.7994410812462
 20
346.402809133704
 30
0.0
 11
970.7694410812463
 21
346.402809133704
 31
0.0
  0
LINE
  5
447
330
75
100
AcDbEntity
  8
Sichtbar schmal (ISO)
100
AcDbLine
 10
969.0373902736768
 20
344.402809133704
 30
0.0
 11
969.0673902736767
 21
344.402809133704
 31
0.0
  0
LINE
  5
448
330
75
100
AcDbEntity
  8
Sichtbar schmal (ISO)
100
AcDbLine
 10
969.0673902736767
 20
318.402809133704
 30
0.0
 11
969.0373902736768
 21
318.402809133704
 31
0.0
  0
ELLIPSE
  5
449
330
75
100
AcDbEntity
  8
Sichtbar (ISO)
100
AcDbEllipse
 10
993.3161015796494
 20
318.402809133704
 30
0.0
 11
0.0000000000000289
 21
-1.999999999999979
 31
0.0
210
0.0
220
0.0
230
1.0
 40
0.8660254037847394
 41
0.0
 42
1.570796326794901
  0
LINE
  5
44A
330
75
100
AcDbEntity
  8
Sichtbar (ISO)
100
AcDbLine
 10
970.7694410812463
 20
316.402809133704
 30
0.0
 11
970.7994410812462
 21
316.402809133704
 31
0.0
  0
ELLIPSE
  5
44B
330
75
100
AcDbEntity
  8
Sichtbar (ISO)
100
AcDbEllipse
 10
970.7994410812462
 20
318.402809133704
 30
0.0
 11
-0.0000000000000089
 21
-2.000000000000015
 31
0.0
210
0.0
220
0.0
230
1.0
 40
0.8660254037847348
 41
4.71238898038471
 42
6.283185307179597
  0
ELLIPSE
  5
44C
330
75
100
AcDbEntity
  8
Sichtbar (ISO)
100
AcDbEllipse
 10
993.3161015796494
 20
344.402809133704
 30
0.0
 11
0.0
 21
1.999999999999966
 31
0.0
210
0.0
220
0.0
230
1.0
 40
0.8660254037847396
 41
4.712388980384654
 42
6.283185307179577
  0
LINE
  5
44D
330
75
100
AcDbEntity
  8
Sichtbar (ISO)
100
AcDbLine
 10
938.9181400021435
 20
277.002809133704
 30
0.0
 11
962.9181400021435
 21
277.002809133704
 31
0.0
  0
ARC
  5
44E
330
75
100
AcDbEntity
  8
Sichtbar (ISO)
100
AcDbCircle
 10
950.9181400021436
 20
261.002809133704
 30
0.0
 40
20.00000000000001
100
AcDbArc
 50
126.869897645844
 51
53.13010235415588
  0
LINE
  5
44F
330
75
100
AcDbEntity
  8
Sichtbar (ISO)
100
AcDbLine
 10
961.5764523973172
 20
297.002809133704
 30
0.0
 11
959.9181400021382
 21
297.002809133704
 31
0.0
  0
LINE
  5
450
330
75
100
AcDbEntity
  8
Sichtbar (ISO)
100
AcDbLine
 10
959.9181400021382
 20
297.002809133704
 30
0.0
 11
958.2598276069596
 21
297.002809133704
 31
0.0
  0
ELLIPSE
  5
451
330
75
100
AcDbEntity
  8
Sichtbar (ISO)
100
AcDbEllipse
 10
976.3559621756328
 20
294.502809133704
 30
0.0
 11
0.0000000000000011
 21
2.5
 31
0.0
210
0.0
220
0.0
230
1.0
 40
0.8660254037847355
 41
0.0
 42
6.283185307179586
  0
CIRCLE
  5
452
330
75
100
AcDbEntity
  8
Sichtbar (ISO)
100
AcDbCircle
 10
959.9181400021178
 20
294.502809133704
 30
0.0
 40
2.5
  0
ELLIPSE
  5
453
330
75
100
AcDbEntity
  8
Sichtbar schmal (ISO)
100
AcDbEllipse
 10
984.1026504517497
 20
294.502809133704
 30
0.0
 11
0.0000000000000089
 21
2.5
 31
0.0
210
0.0
220
0.0
230
1.0
 40
0.4226182617401614
 41
3.141592653589798
 42
6.283185307179592
  0
ELLIPSE
  5
454
330
75
100
AcDbEntity
  8
Sichtbar schmal (ISO)
100
AcDbEllipse
 10
966.3559621756432
 20
294.502809133704
 30
0.0
 11
0.0
 21
-2.5
 31
0.0
210
0.0
220
0.0
230
1.0
 40
0.8660254037847346
 41
3.141592653589793
 42
6.283185307179586
  0
ARC
  5
455
330
75
100
AcDbEntity
  8
Sichtbar (ISO)
100
AcDbCircle
 10
993.918140002167
 20
294.502809133704
 30
0.0
 40
2.5
100
AcDbArc
 50
270.0
 51
90.0
  0
LINE
  5
456
330
75
100
AcDbEntity
  8
Sichtbar (ISO)
100
AcDbLine
 10
959.9181400021668
 20
292.002809133704
 30
0.0
 11
961.5764523973492
 21
292.002809133704
 31
0.0
  0
LINE
  5
457
330
75
100
AcDbEntity
  8
Sichtbar (ISO)
100
AcDbLine
 10
984.1026504517499
 20
292.002809133704
 30
0.0
 11
993.918140002167
 21
292.002809133704
 31
0.0
  0
LINE
  5
458
330
75
100
AcDbEntity
  8
Sichtbar (ISO)
100
AcDbLine
 10
993.918140002167
 20
297.002809133704
 30
0.0
 11
984.1026504517497
 21
297.002809133704
 31
0.0
  0
LINE
  5
459
330
75
100
AcDbEntity
  8
Sichtbar (ISO)
100
AcDbLine
 10
984.1026504517499
 20
292.002809133704
 30
0.0
 11
976.3559621756646
 21
292.002809133704
 31
0.0
  0
LINE
  5
45A
330
75
100
AcDbEntity
  8
Sichtbar (ISO)
100
AcDbLine
 10
984.1026504517499
 20
297.002809133704
 30
0.0
 11
976.3559621756646
 21
297.002809133704
 31
0.0
  0
ARC
  5
45B
330
75
100
AcDbEntity
  8
Sichtbar (ISO)
100
AcDbCircle
 10
965.4181400021364
 20
294.502809133704
 30
0.0
 40
2.5
100
AcDbArc
 50
90.0
 51
270.0
  0
LINE
  5
45C
330
75
100
AcDbEntity
  8
Sichtbar (ISO)
100
AcDbLine
 10
966.355962175643
 20
297.002809133704
 30
0.0
 11
965.4181400021364
 21
297.002809133704
 31
0.0
  0
LINE
  5
45D
330
75
100
AcDbEntity
  8
Sichtbar (ISO)
100
AcDbLine
 10
965.4181400021364
 20
292.002809133704
 30
0.0
 11
966.3559621756432
 21
292.002809133704
 31
0.0
  0
LINE
  5
45E
330
75
100
AcDbEntity
  8
Sichtbar (ISO)
100
AcDbLine
 10
966.3559621756432
 20
297.002809133704
 30
0.0
 11
976.3559621756328
 21
297.002809133704
 31
0.0
  0
LINE
  5
45F
330
75
100
AcDbEntity
  8
Sichtbar (ISO)
100
AcDbLine
 10
966.3559621756432
 20
292.002809133704
 30
0.0
 11
976.3559621756328
 21
292.002809133704
 31
0.0
  0
LINE
  5
460
330
75
100
AcDbEntity
  8
Sichtbar (ISO)
100
AcDbLine
 10
934.4181400021433
 20
383.402809133704
 30
0.0
 11
934.4181400021433
 21
739.5028091337035
 31
0.0
  0
LINE
  5
461
330
75
100
AcDbEntity
  8
Sichtbar (ISO)
100
AcDbLine
 10
967.4181400021433
 20
383.402809133704
 30
0.0
 11
967.4181400021433
 21
739.5028091337035
 31
0.0
  0
LINE
  5
462
330
75
100
AcDbEntity
  8
Sichtbar (ISO)
100
AcDbLine
 10
929.6131400021433
 20
357.102809133704
 30
0.0
 11
929.6131400021433
 21
381.8028091337039
 31
0.0
  0
LINE
  5
463
330
75
100
AcDbEntity
  8
Sichtbar (ISO)
100
AcDbLine
 10
989.2231400021433
 20
357.102809133704
 30
0.0
 11
989.2231400021433
 21
381.8028091337039
 31
0.0
  0
LINE
  5
464
330
75
100
AcDbEntity
  8
Sichtbar (ISO)
100
AcDbLine
 10
954.9181400021437
 20
287.5028091337041
 30
0.0
 11
954.9181400021437
 21
277.002809133704
 31
0.0
  0
LINE
  5
465
330
75
100
AcDbEntity
  8
Sichtbar (ISO)
100
AcDbLine
 10
946.9181400021435
 20
287.5028091337041
 30
0.0
 11
946.9181400021435
 21
277.002809133704
 31
0.0
  0
LINE
  5
466
330
75
100
AcDbEntity
  8
Sichtbar schmal (ISO)
100
AcDbLine
 10
931.0921400021435
 20
383.281809133704
 30
0.0
 11
931.0921400021435
 21
359.402809133704
 31
0.0
  0
LINE
  5
467
330
75
100
AcDbEntity
  8
Sichtbar schmal (ISO)
100
AcDbLine
 10
987.7441400021433
 20
359.402809133704
 30
0.0
 11
987.7441400021433
 21
383.281809133704
 31
0.0
  0
LINE
  5
468
330
75
100
AcDbEntity
  8
Sichtbar (ISO)
100
AcDbLine
 10
989.2231400021433
 20
359.402809133704
 30
0.0
 11
929.6131400021433
 21
359.402809133704
 31
0.0
  0
LINE
  5
469
330
75
100
AcDbEntity
  8
Sichtbar schmal (ISO)
100
AcDbLine
 10
954.1741400021434
 20
277.002809133704
 30
0.0
 11
954.1741400021434
 21
287.5028091337041
 31
0.0
  0
LINE
  5
46A
330
75
100
AcDbEntity
  8
Sichtbar schmal (ISO)
100
AcDbLine
 10
947.6621400021436
 20
287.5028091337041
 30
0.0
 11
947.6621400021436
 21
277.002809133704
 31
0.0
  0
ENDSEC
  0
SECTION
  2
OBJECTS
  0
DICTIONARY
  5
C
330
0
100
AcDbDictionary
281
     1
  3
ACAD_COLOR
350
6B
  3
ACAD_GROUP
350
D
  3
ACAD_LAYOUT
350
6A
  3
ACAD_MATERIAL
350
10
  3
ACAD_MLEADERSTYLE
350
6E
  3
ACAD_MLINESTYLE
350
67
  3
ACAD_PLOTSETTINGS
350
69
  3
ACAD_PLOTSTYLENAME
350
E
  3
ACAD_SCALELIST
350
3A
  3
ACAD_TABLESTYLE
350
6C
  3
ACAD_VISUALSTYLE
350
29
  3
ACDB_RECOMPOSE_DATA
350
476
  3
AcDbVariableDictionary
350
46B
  0
DICTIONARY
  5
472
330
169
100
AcDbDictionary
280
     1
281
     1
  3
ACAD_MLATT
360
473
  0
DICTIONARY
  5
474
330
16B
100
AcDbDictionary
280
     1
281
     1
  3
ACAD_MLATT
360
475
  0
DICTIONARY
  5
6B
102
{ACAD_REACTORS
330
C
102
}
330
C
100
AcDbDictionary
281
     1
  0
DICTIONARY
  5
D
102
{ACAD_REACTORS
330
C
102
}
330
C
100
AcDbDictionary
281
     1
  0
DICTIONARY
  5
6A
102
{ACAD_REACTORS
330
C
102
}
330
C
100
AcDbDictionary
281
     1
  3
Layout1
350
74
  3
Layout2
350
7C
  3
Model
350
78
  0
DICTIONARY
  5
10
102
{ACAD_REACTORS
330
C
102
}
330
C
100
AcDbDictionary
281
     1
  3
ByBlock
350
19
  3
ByLayer
350
11
  3
Global
350
21
  0
DICTIONARY
  5
6E
102
{ACAD_REACTORS
330
C
102
}
330
C
100
AcDbDictionary
281
     1
  3
Standard
350
6F
  0
DICTIONARY
  5
67
102
{ACAD_REACTORS
330
C
102
}
330
C
100
AcDbDictionary
281
     1
  3
Standard
350
68
  0
DICTIONARY
  5
69
102
{ACAD_REACTORS
330
C
102
}
330
C
100
AcDbDictionary
281
     1
  0
ACDBDICTIONARYWDFLT
  5
E
102
{ACAD_REACTORS
330
C
102
}
330
C
100
AcDbDictionary
281
     1
  3
Normal
350
F
100
AcDbDictionaryWithDefault
340
F
  0
DICTIONARY
  5
3A
102
{ACAD_REACTORS
330
C
102
}
330
C
100
AcDbDictionary
281
     1
  3
A0
350
3B
  3
A1
350
3C
  3
A2
350
3D
  3
A3
350
3E
  3
A4
350
3F
  3
A5
350
40
  3
A6
350
41
  3
A7
350
42
  3
A8
350
43
  3
A9
350
44
  3
B0
350
45
  3
B1
350
46
  3
B2
350
47
  3
B3
350
48
  3
B4
350
49
  3
B5
350
4A
  3
B6
350
4B
  3
B7
350
4C
  3
B8
350
4D
  3
B9
350
4E
  3
C0
350
4F
  3
C1
350
50
  3
C2
350
51
  3
C3
350
52
  3
C4
350
53
  3
C5
350
54
  3
C6
350
55
  3
C7
350
56
  3
C8
350
57
  3
C9
350
58
  3
D0
350
59
  3
D1
350
5A
  3
D2
350
5B
  0
DICTIONARY
  5
6C
102
{ACAD_REACTORS
330
C
102
}
330
C
100
AcDbDictionary
281
     1
  3
Standard
350
6D
  0
DICTIONARY
  5
29
102
{ACAD_REACTORS
330
C
102
}
330
C
100
AcDbDictionary
281
     1
  3
2dWireframe
350
2F
  3
3D Hidden
350
31
  3
3dWireframe
350
30
  3
Basic
350
2E
  3
Brighten
350
35
  3
ColorChange
350
39
  3
Conceptual
350
32
  3
Dim
350
34
  3
Facepattern
350
38
  3
Flat
350
2A
  3
FlatWithEdges
350
2B
  3
Gouraud
350
2C
  3
GouraudWithEdges
350
2D
  3
Linepattern
350
37
  3
Realistic
350
33
  3
Thicken
350
36
  0
XRECORD
  5
476
102
{ACAD_REACTORS
330
C
102
}
330
C
100
AcDbXrecord
280
     1
 90
        1
330
6D
330
169
330
16B
  0
DICTIONARY
  5
46B
102
{ACAD_REACTORS
330
C
102
}
330
C
100
AcDbDictionary
281
     1
  3
CANNOSCALE
350
46E
  3
CMLEADERSTYLE
350
46D
  3
CTABLESTYLE
350
46C
  0
XRECORD
  5
473
102
{ACAD_REACTORS
330
472
102
}
330
472
100
AcDbXrecord
280
     1
 70
     4
 70
     0
 70
     0
 40
1.0
  2
TolWinkel_Fein
  1
Embedded Object
 10
-98.35000000000002
 20
4.499999999999992
 30
0.0
 40
2.000000029802322
 41
0.0
 46
0.0
 71
     4
 72
     5
  1
\W0.9000;
  7
TolListe_12-Arial
 73
     1
 44
1.0
  0
XRECORD
  5
475
102
{ACAD_REACTORS
330
474
102
}
330
474
100
AcDbXrecord
280
     1
 70
     4
 70
     0
 70
     0
 40
1.0
  2
TolWinkel_Grob
  1
Embedded Object
 10
-98.35000000000002
 20
1.500000000000003
 30
0.0
 40
2.000000029802322
 41
0.0
 46
0.0
 71
     4
 72
     5
  1
\W1.1000;X
  7
TolListe_12-Arial
 73
     1
 44
1.0
  0
LAYOUT
  5
74
102
{ACAD_REACTORS
330
6A
102
}
330
6A
100
AcDbPlotSettings
  1

  2

  4

  6

 40
0.0
 41
0.0
 42
0.0
 43
0.0
 44
0.0
 45
0.0
 46
0.0
 47
0.0
 48
0.0
 49
0.0
140
0.0
141
0.0
142
1.0
143
1.0
 70
   688
 72
     0
 73
     0
 74
     5
  7

 75
    16
147
1.0
 76
     0
 77
     2
 78
   300
148
0.0
149
0.0
100
AcDbLayout
  1
Layout1
 70
     1
 71
     1
 10
0.0
 20
0.0
 11
12.0
 21
9.0
 12
0.0
 22
0.0
 32
0.0
 14
0.0
 24
0.0
 34
0.0
 15
0.0
 25
0.0
 35
0.0
146
0.0
 13
0.0
 23
0.0
 33
0.0
 16
1.0
 26
0.0
 36
0.0
 17
0.0
 27
1.0
 37
0.0
 76
     0
330
71
  0
LAYOUT
  5
7C
102
{ACAD_REACTORS
330
6A
102
}
330
6A
100
AcDbPlotSettings
  1

  2

  4

  6

 40
0.0
 41
0.0
 42
0.0
 43
0.0
 44
0.0
 45
0.0
 46
0.0
 47
0.0
 48
0.0
 49
0.0
140
0.0
141
0.0
142
1.0
143
1.0
 70
   688
 72
     0
 73
     0
 74
     5
  7

 75
    16
147
1.0
 76
     0
 77
     2
 78
   300
148
0.0
149
0.0
100
AcDbLayout
  1
Layout2
 70
     1
 71
     2
 10
0.0
 20
0.0
 11
12.0
 21
9.0
 12
0.0
 22
0.0
 32
0.0
 14
0.0
 24
0.0
 34
0.0
 15
0.0
 25
0.0
 35
0.0
146
0.0
 13
0.0
 23
0.0
 33
0.0
 16
1.0
 26
0.0
 36
0.0
 17
0.0
 27
1.0
 37
0.0
 76
     0
330
79
  0
LAYOUT
  5
78
102
{ACAD_REACTORS
330
6A
102
}
330
6A
100
AcDbPlotSettings
  1

  2

  4

  6

 40
0.0
 41
0.0
 42
0.0
 43
0.0
 44
0.0
 45
0.0
 46
0.0
 47
0.0
 48
0.0
 49
0.0
140
0.0
141
0.0
142
1.0
143
1.0
 70
  1712
 72
     0
 73
     0
 74
     0
  7

 75
     0
147
1.0
 76
     0
 77
     2
 78
   300
148
0.0
149
0.0
100
AcDbLayout
  1
Model
 70
     1
 71
     0
 10
0.0
 20
0.0
 11
12.0
 21
9.0
 12
0.0
 22
0.0
 32
0.0
 14
0.0
 24
0.0
 34
0.0
 15
0.0
 25
0.0
 35
0.0
146
0.0
 13
0.0
 23
0.0
 33
0.0
 16
1.0
 26
0.0
 36
0.0
 17
0.0
 27
1.0
 37
0.0
 76
     0
330
75
  0
MATERIAL
  5
19
102
{ACAD_XDICTIONARY
360
1A
102
}
102
{ACAD_REACTORS
330
10
102
}
330
10
100
AcDbMaterial
  1
ByBlock
 72
     0
 43
0.0208333333333333
 43
0.0
 43
0.0
 43
0.0
 43
0.0
 43
0.0208333333333333
 43
0.0
 43
0.0
 43
0.0
 43
0.0
 43
1.0
 43
0.0
 43
0.0
 43
0.0
 43
0.0
 43
1.0
 77
     0
 47
0.0208333333333333
 47
0.0
 47
0.0
 47
0.0
 47
0.0
 47
0.0208333333333333
 47
0.0
 47
0.0
 47
0.0
 47
0.0
 47
1.0
 47
0.0
 47
0.0
 47
0.0
 47
0.0
 47
1.0
171
     0
 49
0.0208333333333333
 49
0.0
 49
0.0
 49
0.0
 49
0.0
 49
0.0208333333333333
 49
0.0
 49
0.0
 49
0.0
 49
0.0
 49
1.0
 49
0.0
 49
0.0
 49
0.0
 49
0.0
 49
1.0
175
     0
142
0.0208333333333333
142
0.0
142
0.0
142
0.0
142
0.0
142
0.0208333333333333
142
0.0
142
0.0
142
0.0
142
0.0
142
1.0
142
0.0
142
0.0
142
0.0
142
0.0
142
1.0
179
     0
144
0.0208333333333333
144
0.0
144
0.0
144
0.0
144
0.0
144
0.0208333333333333
144
0.0
144
0.0
144
0.0
144
0.0
144
1.0
144
0.0
144
0.0
144
0.0
144
0.0
144
1.0
147
0.0208333333333333
147
0.0
147
0.0
147
0.0
147
0.0
147
0.0208333333333333
147
0.0
147
0.0
147
0.0
147
0.0
147
1.0
147
0.0
147
0.0
147
0.0
147
0.0
147
1.0
  0
MATERIAL
  5
11
102
{ACAD_XDICTIONARY
360
12
102
}
102
{ACAD_REACTORS
330
10
102
}
330
10
100
AcDbMaterial
  1
ByLayer
 72
     0
 43
0.0208333333333333
 43
0.0
 43
0.0
 43
0.0
 43
0.0
 43
0.0208333333333333
 43
0.0
 43
0.0
 43
0.0
 43
0.0
 43
1.0
 43
0.0
 43
0.0
 43
0.0
 43
0.0
 43
1.0
 77
     0
 47
0.0208333333333333
 47
0.0
 47
0.0
 47
0.0
 47
0.0
 47
0.0208333333333333
 47
0.0
 47
0.0
 47
0.0
 47
0.0
 47
1.0
 47
0.0
 47
0.0
 47
0.0
 47
0.0
 47
1.0
171
     0
 49
0.0208333333333333
 49
0.0
 49
0.0
 49
0.0
 49
0.0
 49
0.0208333333333333
 49
0.0
 49
0.0
 49
0.0
 49
0.0
 49
1.0
 49
0.0
 49
0.0
 49
0.0
 49
0.0
 49
1.0
175
     0
142
0.0208333333333333
142
0.0
142
0.0
142
0.0
142
0.0
142
0.0208333333333333
142
0.0
142
0.0
142
0.0
142
0.0
142
1.0
142
0.0
142
0.0
142
0.0
142
0.0
142
1.0
179
     0
144
0.0208333333333333
144
0.0
144
0.0
144
0.0
144
0.0
144
0.0208333333333333
144
0.0
144
0.0
144
0.0
144
0.0
144
1.0
144
0.0
144
0.0
144
0.0
144
0.0
144
1.0
147
0.0208333333333333
147
0.0
147
0.0
147
0.0
147
0.0
147
0.0208333333333333
147
0.0
147
0.0
147
0.0
147
0.0
147
1.0
147
0.0
147
0.0
147
0.0
147
0.0
147
1.0
  0
MATERIAL
  5
21
102
{ACAD_XDICTIONARY
360
22
102
}
102
{ACAD_REACTORS
330
10
102
}
330
10
100
AcDbMaterial
  1
Global
 72
     0
 43
0.0208333333333333
 43
0.0
 43
0.0
 43
0.0
 43
0.0
 43
0.0208333333333333
 43
0.0
 43
0.0
 43
0.0
 43
0.0
 43
1.0
 43
0.0
 43
0.0
 43
0.0
 43
0.0
 43
1.0
 77
     0
 47
0.0208333333333333
 47
0.0
 47
0.0
 47
0.0
 47
0.0
 47
0.0208333333333333
 47
0.0
 47
0.0
 47
0.0
 47
0.0
 47
1.0
 47
0.0
 47
0.0
 47
0.0
 47
0.0
 47
1.0
171
     0
 49
0.0208333333333333
 49
0.0
 49
0.0
 49
0.0
 49
0.0
 49
0.0208333333333333
 49
0.0
 49
0.0
 49
0.0
 49
0.0
 49
1.0
 49
0.0
 49
0.0
 49
0.0
 49
0.0
 49
1.0
175
     0
142
0.0208333333333333
142
0.0
142
0.0
142
0.0
142
0.0
142
0.0208333333333333
142
0.0
142
0.0
142
0.0
142
0.0
142
1.0
142
0.0
142
0.0
142
0.0
142
0.0
142
1.0
179
     0
144
0.0208333333333333
144
0.0
144
0.0
144
0.0
144
0.0
144
0.0208333333333333
144
0.0
144
0.0
144
0.0
144
0.0
144
1.0
144
0.0
144
0.0
144
0.0
144
0.0
144
1.0
147
0.0208333333333333
147
0.0
147
0.0
147
0.0
147
0.0
147
0.0208333333333333
147
0.0
147
0.0
147
0.0
147
0.0
147
1.0
147
0.0
147
0.0
147
0.0
147
0.0
147
1.0
  0
MLEADERSTYLE
  5
6F
102
{ACAD_REACTORS
330
6E
102
}
330
6E
100
AcDbMLeaderStyle
170
     2
171
     1
172
     0
 90
        2
 40
0.0
 41
0.0
173
     1
 91
-1056964608
340
63
 92
       -2
290
     1
 42
0.09
291
     1
 43
0.36
  3
Standard
 44
0.18
300

342
5D
174
     1
178
     6
175
     1
176
     0
 93
-1056964608
 45
0.18
292
     0
297
     0
 46
0.18
 94
-1056964608
 47
1.0
 49
1.0
140
1.0
293
     1
141
0.0
294
     1
177
     0
142
1.0
295
     1
296
     0
143
0.125
1001
ACAD_MLEADERVER
1070
     2
  0
MLINESTYLE
  5
68
102
{ACAD_REACTORS
330
67
102
}
330
67
100
AcDbMlineStyle
  2
STANDARD
 70
     0
  3

 62
   256
 51
90.0
 52
90.0
 71
     2
 49
0.5
 62
   256
  6
BYLAYER
 49
-0.5
 62
   256
  6
BYLAYER
  0
ACDBPLACEHOLDER
  5
F
102
{ACAD_REACTORS
330
E
102
}
330
E
  0
SCALE
  5
3B
102
{ACAD_REACTORS
330
3A
102
}
330
3A
100
AcDbScale
 70
     0
300
1:1
140
1.0
141
1.0
290
     1
  0
SCALE
  5
3C
102
{ACAD_REACTORS
330
3A
102
}
330
3A
100
AcDbScale
 70
     0
300
1:2
140
1.0
141
2.0
290
     0
  0
SCALE
  5
3D
102
{ACAD_REACTORS
330
3A
102
}
330
3A
100
AcDbScale
 70
     0
300
1:4
140
1.0
141
4.0
290
     0
  0
SCALE
  5
3E
102
{ACAD_REACTORS
330
3A
102
}
330
3A
100
AcDbScale
 70
     0
300
1:5
140
1.0
141
5.0
290
     0
  0
SCALE
  5
3F
102
{ACAD_REACTORS
330
3A
102
}
330
3A
100
AcDbScale
 70
     0
300
1:8
140
1.0
141
8.0
290
     0
  0
SCALE
  5
40
102
{ACAD_REACTORS
330
3A
102
}
330
3A
100
AcDbScale
 70
     0
300
1:10
140
1.0
141
10.0
290
     0
  0
SCALE
  5
41
102
{ACAD_REACTORS
330
3A
102
}
330
3A
100
AcDbScale
 70
     0
300
1:16
140
1.0
141
16.0
290
     0
  0
SCALE
  5
42
102
{ACAD_REACTORS
330
3A
102
}
330
3A
100
AcDbScale
 70
     0
300
1:20
140
1.0
141
20.0
290
     0
  0
SCALE
  5
43
102
{ACAD_REACTORS
330
3A
102
}
330
3A
100
AcDbScale
 70
     0
300
1:30
140
1.0
141
30.0
290
     0
  0
SCALE
  5
44
102
{ACAD_REACTORS
330
3A
102
}
330
3A
100
AcDbScale
 70
     0
300
1:40
140
1.0
141
40.0
290
     0
  0
SCALE
  5
45
102
{ACAD_REACTORS
330
3A
102
}
330
3A
100
AcDbScale
 70
     0
300
1:50
140
1.0
141
50.0
290
     0
  0
SCALE
  5
46
102
{ACAD_REACTORS
330
3A
102
}
330
3A
100
AcDbScale
 70
     0
300
1:100
140
1.0
141
100.0
290
     0
  0
SCALE
  5
47
102
{ACAD_REACTORS
330
3A
102
}
330
3A
100
AcDbScale
 70
     0
300
2:1
140
2.0
141
1.0
290
     0
  0
SCALE
  5
48
102
{ACAD_REACTORS
330
3A
102
}
330
3A
100
AcDbScale
 70
     0
300
4:1
140
4.0
141
1.0
290
     0
  0
SCALE
  5
49
102
{ACAD_REACTORS
330
3A
102
}
330
3A
100
AcDbScale
 70
     0
300
8:1
140
8.0
141
1.0
290
     0
  0
SCALE
  5
4A
102
{ACAD_REACTORS
330
3A
102
}
330
3A
100
AcDbScale
 70
     0
300
10:1
140
10.0
141
1.0
290
     0
  0
SCALE
  5
4B
102
{ACAD_REACTORS
330
3A
102
}
330
3A
100
AcDbScale
 70
     0
300
100:1
140
100.0
141
1.0
290
     0
  0
SCALE
  5
4C
102
{ACAD_REACTORS
330
3A
102
}
330
3A
100
AcDbScale
 70
     0
300
1/128" = 1'-0"
140
0.0078125
141
12.0
290
     0
  0
SCALE
  5
4D
102
{ACAD_REACTORS
330
3A
102
}
330
3A
100
AcDbScale
 70
     0
300
1/64" = 1'-0"
140
0.015625
141
12.0
290
     0
  0
SCALE
  5
4E
102
{ACAD_REACTORS
330
3A
102
}
330
3A
100
AcDbScale
 70
     0
300
1/32" = 1'-0"
140
0.03125
141
12.0
290
     0
  0
SCALE
  5
4F
102
{ACAD_REACTORS
330
3A
102
}
330
3A
100
AcDbScale
 70
     0
300
1/16" = 1'-0"
140
0.0625
141
12.0
290
     0
  0
SCALE
  5
50
102
{ACAD_REACTORS
330
3A
102
}
330
3A
100
AcDbScale
 70
     0
300
3/32" = 1'-0"
140
0.09375
141
12.0
290
     0
  0
SCALE
  5
51
102
{ACAD_REACTORS
330
3A
102
}
330
3A
100
AcDbScale
 70
     0
300
1/8" = 1'-0"
140
0.125
141
12.0
290
     0
  0
SCALE
  5
52
102
{ACAD_REACTORS
330
3A
102
}
330
3A
100
AcDbScale
 70
     0
300
3/16" = 1'-0"
140
0.1875
141
12.0
290
     0
  0
SCALE
  5
53
102
{ACAD_REACTORS
330
3A
102
}
330
3A
100
AcDbScale
 70
     0
300
1/4" = 1'-0"
140
0.25
141
12.0
290
     0
  0
SCALE
  5
54
102
{ACAD_REACTORS
330
3A
102
}
330
3A
100
AcDbScale
 70
     0
300
3/8" = 1'-0"
140
0.375
141
12.0
290
     0
  0
SCALE
  5
55
102
{ACAD_REACTORS
330
3A
102
}
330
3A
100
AcDbScale
 70
     0
300
1/2" = 1'-0"
140
0.5
141
12.0
290
     0
  0
SCALE
  5
56
102
{ACAD_REACTORS
330
3A
102
}
330
3A
100
AcDbScale
 70
     0
300
3/4" = 1'-0"
140
0.75
141
12.0
290
     0
  0
SCALE
  5
57
102
{ACAD_REACTORS
330
3A
102
}
330
3A
100
AcDbScale
 70
     0
300
1" = 1'-0"
140
1.0
141
12.0
290
     0
  0
SCALE
  5
58
102
{ACAD_REACTORS
330
3A
102
}
330
3A
100
AcDbScale
 70
     0
300
1-1/2" = 1'-0"
140
1.5
141
12.0
290
     0
  0
SCALE
  5
59
102
{ACAD_REACTORS
330
3A
102
}
330
3A
100
AcDbScale
 70
     0
300
3" = 1'-0"
140
3.0
141
12.0
290
     0
  0
SCALE
  5
5A
102
{ACAD_REACTORS
330
3A
102
}
330
3A
100
AcDbScale
 70
     0
300
6" = 1'-0"
140
6.0
141
12.0
290
     0
  0
SCALE
  5
5B
102
{ACAD_REACTORS
330
3A
102
}
330
3A
100
AcDbScale
 70
     0
300
1'-0" = 1'-0"
140
12.0
141
12.0
290
     0
  0
TABLESTYLE
  5
6D
102
{ACAD_XDICTIONARY
360
46F
102
}
102
{ACAD_REACTORS
330
6C
102
}
330
6C
100
AcDbTableStyle
  3
Standard
 70
     0
 71
     0
 40
0.06
 41
0.06
280
     0
281
     0
  7
Standard
140
0.18
170
     2
 62
     0
 63
     7
283
     0
 90
      512
 91
        0
  1

274
    -2
284
     1
 64
     0
275
    -2
285
     1
 65
     0
276
    -2
286
     1
 66
     0
277
    -2
287
     1
 67
     0
278
    -2
288
     1
 68
     0
279
    -2
289
     1
 69
     0
  7
Standard
140
0.25
170
     5
 62
     0
 63
     7
283
     0
 90
      512
 91
        0
  1

274
    -2
284
     1
 64
     0
275
    -2
285
     1
 65
     0
276
    -2
286
     1
 66
     0
277
    -2
287
     1
 67
     0
278
    -2
288
     1
 68
     0
279
    -2
289
     1
 69
     0
  7
Standard
140
0.18
170
     5
 62
     0
 63
     7
283
     0
 90
      512
 91
        0
  1

274
    -2
284
     1
 64
     0
275
    -2
285
     1
 65
     0
276
    -2
286
     1
 66
     0
277
    -2
287
     1
 67
     0
278
    -2
288
     1
 68
     0
279
    -2
289
     1
 69
     0
  0
VISUALSTYLE
  5
2F
102
{ACAD_REACTORS
330
29
102
}
330
29
100
AcDbVisualStyle
  2
2dWireframe
 70
     4
 71
     0
 72
     2
 73
     0
 90
        0
 40
-0.6
 41
-30.0
 62
     5
 63
     7
421
 16777215
 74
     1
 91
        4
 64
     7
 65
   257
 75
     1
175
     1
 42
1.0
 92
        0
 66
   257
 43
1.0
 76
     1
 77
     6
 78
     2
 67
     7
 79
     5
170
     0
171
     0
290
     0
174
     0
 93
        1
 44
0.0
173
     0
291
     0
 45
0.0
  0
VISUALSTYLE
  5
31
102
{ACAD_REACTORS
330
29
102
}
330
29
100
AcDbVisualStyle
  2
3D Hidden
 70
     6
 71
     1
 72
     2
 73
     2
 90
        0
 40
-0.6
 41
-30.0
 62
     5
 63
     7
421
 16777215
 74
     2
 91
        2
 64
     7
 65
   257
 75
     2
175
     1
 42
40.0
 92
        0
 66
   257
 43
1.0
 76
     1
 77
     6
 78
     2
 67
     7
 79
     3
170
     0
171
     0
290
     0
174
     0
 93
        1
 44
0.0
173
     0
291
     0
 45
0.0
  0
VISUALSTYLE
  5
30
102
{ACAD_REACTORS
330
29
102
}
330
29
100
AcDbVisualStyle
  2
3dWireframe
 70
     5
 71
     0
 72
     2
 73
     0
 90
        0
 40
-0.6
 41
-30.0
 62
     5
 63
     7
421
 16777215
 74
     1
 91
        4
 64
     7
 65
   257
 75
     1
175
     1
 42
1.0
 92
        0
 66
   257
 43
1.0
 76
     1
 77
     6
 78
     2
 67
     7
 79
     5
170
     0
171
     0
290
     0
174
     0
 93
        1
 44
0.0
173
     0
291
     0
 45
0.0
  0
VISUALSTYLE
  5
2E
102
{ACAD_REACTORS
330
29
102
}
330
29
100
AcDbVisualStyle
  2
Basic
 70
     7
 71
     1
 72
     0
 73
     1
 90
        0
 40
-0.6
 41
-30.0
 62
     5
 63
     7
421
 16777215
 74
     0
 91
        4
 64
     7
 65
   257
 75
     1
175
     1
 42
1.0
 92
        8
 66
     7
 43
1.0
 76
     1
 77
     6
 78
     2
 67
     7
 79
     5
170
     0
171
     0
290
     0
174
     0
 93
        1
 44
0.0
173
     0
291
     1
 45
0.0
  0
VISUALSTYLE
  5
35
102
{ACAD_REACTORS
330
29
102
}
330
29
100
AcDbVisualStyle
  2
Brighten
 70
    12
 71
     2
 72
     2
 73
     0
 90
        0
 40
-0.6
 41
-30.0
 62
     5
 63
     7
421
 16777215
 74
     1
 91
        4
 64
     7
 65
   257
 75
     1
175
     1
 42
1.0
 92
        8
 66
     7
 43
1.0
 76
     1
 77
     6
 78
     2
 67
     7
 79
     5
170
     0
171
     0
290
     0
174
     0
 93
        1
 44
50.0
173
     0
291
     1
 45
0.0
  0
VISUALSTYLE
  5
39
102
{ACAD_REACTORS
330
29
102
}
330
29
100
AcDbVisualStyle
  2
ColorChange
 70
    16
 71
     2
 72
     2
 73
     3
 90
        0
 40
-0.6
 41
-30.0
 62
     5
 63
     8
421
  8421504
 74
     1
 91
        4
 64
     7
 65
   257
 75
     1
175
     1
 42
1.0
 92
        8
 66
     8
424
  8421504
 43
1.0
 76
     1
 77
     6
 78
     2
 67
     7
 79
     5
170
     0
171
     0
290
     0
174
     0
 93
        1
 44
0.0
173
     0
291
     1
 45
0.0
  0
VISUALSTYLE
  5
32
102
{ACAD_REACTORS
330
29
102
}
330
29
100
AcDbVisualStyle
  2
Conceptual
 70
     9
 71
     3
 72
     2
 73
     0
 90
        0
 40
-0.6
 41
-30.0
 62
     5
 63
     7
421
 16777215
 74
     2
 91
        2
 64
     7
 65
   257
 75
     1
175
     1
 42
40.0
 92
        8
 66
     7
 43
1.0
 76
     1
 77
     6
 78
     2
 67
     7
 79
     3
170
     0
171
     0
290
     0
174
     0
 93
        1
 44
0.0
173
     0
291
     0
 45
0.0
  0
VISUALSTYLE
  5
34
102
{ACAD_REACTORS
330
29
102
}
330
29
100
AcDbVisualStyle
  2
Dim
 70
    11
 71
     2
 72
     2
 73
     0
 90
        0
 40
-0.6
 41
-30.0
 62
     5
 63
     7
421
 16777215
 74
     1
 91
        4
 64
     7
 65
   257
 75
     1
175
     1
 42
1.0
 92
        8
 66
     7
 43
1.0
 76
     1
 77
     6
 78
     2
 67
     7
 79
     5
170
     0
171
     0
290
     0
174
     0
 93
        1
 44
-50.0
173
     0
291
     1
 45
0.0
  0
VISUALSTYLE
  5
38
102
{ACAD_REACTORS
330
29
102
}
330
29
100
AcDbVisualStyle
  2
Facepattern
 70
    15
 71
     2
 72
     2
 73
     0
 90
        0
 40
-0.6
 41
-30.0
 62
     5
 63
     7
421
 16777215
 74
     1
 91
        4
 64
     7
 65
   257
 75
     1
175
     1
 42
1.0
 92
        8
 66
     7
 43
1.0
 76
     1
 77
     6
 78
     2
 67
     7
 79
     5
170
     0
171
     0
290
     0
174
     0
 93
        1
 44
0.0
173
     0
291
     1
 45
0.0
  0
VISUALSTYLE
  5
2A
102
{ACAD_REACTORS
330
29
102
}
330
29
100
AcDbVisualStyle
  2
Flat
 70
     0
 71
     2
 72
     1
 73
     1
 90
        2
 40
-0.6
 41
30.0
 62
     5
 63
     7
421
 16777215
 74
     0
 91
        4
 64
     7
 65
   257
 75
     1
175
     1
 42
1.0
 92
        8
 66
     7
 43
1.0
 76
     1
 77
     6
 78
     2
 67
     7
 79
     5
170
     0
171
     0
290
     0
174
     0
 93
       13
 44
0.0
173
     0
291
     1
 45
0.0
  0
VISUALSTYLE
  5
2B
102
{ACAD_REACTORS
330
29
102
}
330
29
100
AcDbVisualStyle
  2
FlatWithEdges
 70
     1
 71
     2
 72
     1
 73
     1
 90
        2
 40
-0.6
 41
30.0
 62
     5
 63
     7
421
 16777215
 74
     1
 91
        4
 64
     7
 65
   257
 75
     1
175
     1
 42
1.0
 92
        0
 66
   257
 43
1.0
 76
     1
 77
     6
 78
     2
 67
     7
 79
     5
170
     0
171
     0
290
     0
174
     0
 93
       13
 44
0.0
173
     0
291
     1
 45
0.0
  0
VISUALSTYLE
  5
2C
102
{ACAD_REACTORS
330
29
102
}
330
29
100
AcDbVisualStyle
  2
Gouraud
 70
     2
 71
     2
 72
     2
 73
     1
 90
        2
 40
-0.6
 41
30.0
 62
     5
 63
     7
421
 16777215
 74
     0
 91
        4
 64
     7
 65
   257
 75
     1
175
     1
 42
1.0
 92
        0
 66
     7
 43
1.0
 76
     1
 77
     6
 78
     2
 67
     7
 79
     5
170
     0
171
     0
290
     0
174
     0
 93
       13
 44
0.0
173
     0
291
     1
 45
0.0
  0
VISUALSTYLE
  5
2D
102
{ACAD_REACTORS
330
29
102
}
330
29
100
AcDbVisualStyle
  2
GouraudWithEdges
 70
     3
 71
     2
 72
     2
 73
     1
 90
        2
 40
-0.6
 41
30.0
 62
     5
 63
     7
421
 16777215
 74
     1
 91
        4
 64
     7
 65
   257
 75
     1
175
     1
 42
1.0
 92
        0
 66
   257
 43
1.0
 76
     1
 77
     6
 78
     2
 67
     7
 79
     5
170
     0
171
     0
290
     0
174
     0
 93
       13
 44
0.0
173
     0
291
     1
 45
0.0
  0
VISUALSTYLE
  5
37
102
{ACAD_REACTORS
330
29
102
}
330
29
100
AcDbVisualStyle
  2
Linepattern
 70
    14
 71
     2
 72
     2
 73
     0
 90
        0
 40
-0.6
 41
-30.0
 62
     5
 63
     7
421
 16777215
 74
     1
 91
        4
 64
     7
 65
   257
 75
     7
175
     7
 42
1.0
 92
        8
 66
     7
 43
1.0
 76
     1
 77
     6
 78
     2
 67
     7
 79
     5
170
     0
171
     0
290
     0
174
     0
 93
        1
 44
0.0
173
     0
291
     1
 45
0.0
  0
VISUALSTYLE
  5
33
102
{ACAD_REACTORS
330
29
102
}
330
29
100
AcDbVisualStyle
  2
Realistic
 70
     8
 71
     2
 72
     2
 73
     0
 90
        0
 40
-0.6
 41
-30.0
 62
     5
 63
     7
421
 16777215
 74
     1
 91
        0
 64
     7
 65
   257
 75
     1
175
     1
 42
1.0
 92
        8
 66
     8
424
  7895160
 43
1.0
 76
     1
 77
     6
 78
     2
 67
     7
 79
     5
170
     0
171
     0
290
     0
174
     0
 93
       13
 44
0.0
173
     0
291
     0
 45
0.0
  0
VISUALSTYLE
  5
36
102
{ACAD_REACTORS
330
29
102
}
330
29
100
AcDbVisualStyle
  2
Thicken
 70
    13
 71
     2
 72
     2
 73
     0
 90
        0
 40
-0.6
 41
-30.0
 62
     5
 63
     7
421
 16777215
 74
     1
 91
        4
 64
     7
 65
   257
 75
     1
175
     1
 42
1.0
 92
       12
 66
     7
 43
1.0
 76
     1
 77
     6
 78
     2
 67
     7
 79
     5
170
     0
171
     0
290
     0
174
     0
 93
        1
 44
0.0
173
     0
291
     1
 45
0.0
  0
DICTIONARYVAR
  5
46E
102
{ACAD_REACTORS
330
46B
102
}
330
46B
100
DictionaryVariables
280
     0
  1
1:1
  0
DICTIONARYVAR
  5
46D
102
{ACAD_REACTORS
330
46B
102
}
330
46B
100
DictionaryVariables
280
     0
  1
STANDARD
  0
DICTIONARYVAR
  5
46C
102
{ACAD_REACTORS
330
46B
102
}
330
46B
100
DictionaryVariables
280
     0
  1
STANDARD
  0
DICTIONARY
  5
1A
330
19
100
AcDbDictionary
280
     1
281
     1
  3
BUMPTILE
360
1C
  3
DIFFUSETILE
360
1B
  3
OPACITYTILE
360
1F
  3
REFLECTIONTILE
360
1E
  3
REFRACTIONTILE
360
20
  3
SPECULARTILE
360
1D
  0
DICTIONARY
  5
12
330
11
100
AcDbDictionary
280
     1
281
     1
  3
BUMPTILE
360
14
  3
DIFFUSETILE
360
13
  3
OPACITYTILE
360
17
  3
REFLECTIONTILE
360
16
  3
REFRACTIONTILE
360
18
  3
SPECULARTILE
360
15
  0
DICTIONARY
  5
22
330
21
100
AcDbDictionary
280
     1
281
     1
  3
BUMPTILE
360
24
  3
DIFFUSETILE
360
23
  3
OPACITYTILE
360
27
  3
REFLECTIONTILE
360
26
  3
REFRACTIONTILE
360
28
  3
SPECULARTILE
360
25
  0
DICTIONARY
  5
46F
330
6D
100
AcDbDictionary
280
     1
281
     1
  3
ACAD_ROUNDTRIP_2008_TABLESTYLE_CELLSTYLEMAP
360
470
  0
XRECORD
  5
1C
102
{ACAD_REACTORS
330
1A
102
}
330
1A
100
AcDbXrecord
280
     1
270
     1
271
     1
  0
XRECORD
  5
1B
102
{ACAD_REACTORS
330
1A
102
}
330
1A
100
AcDbXrecord
280
     1
270
     1
271
     1
  0
XRECORD
  5
1F
102
{ACAD_REACTORS
330
1A
102
}
330
1A
100
AcDbXrecord
280
     1
270
     1
271
     1
  0
XRECORD
  5
1E
102
{ACAD_REACTORS
330
1A
102
}
330
1A
100
AcDbXrecord
280
     1
270
     1
271
     1
  0
XRECORD
  5
20
102
{ACAD_REACTORS
330
1A
102
}
330
1A
100
AcDbXrecord
280
     1
270
     1
271
     1
  0
XRECORD
  5
1D
102
{ACAD_REACTORS
330
1A
102
}
330
1A
100
AcDbXrecord
280
     1
270
     1
271
     1
  0
XRECORD
  5
14
102
{ACAD_REACTORS
330
12
102
}
330
12
100
AcDbXrecord
280
     1
270
     1
271
     1
  0
XRECORD
  5
13
102
{ACAD_REACTORS
330
12
102
}
330
12
100
AcDbXrecord
280
     1
270
     1
271
     1
  0
XRECORD
  5
17
102
{ACAD_REACTORS
330
12
102
}
330
12
100
AcDbXrecord
280
     1
270
     1
271
     1
  0
XRECORD
  5
16
102
{ACAD_REACTORS
330
12
102
}
330
12
100
AcDbXrecord
280
     1
270
     1
271
     1
  0
XRECORD
  5
18
102
{ACAD_REACTORS
330
12
102
}
330
12
100
AcDbXrecord
280
     1
270
     1
271
     1
  0
XRECORD
  5
15
102
{ACAD_REACTORS
330
12
102
}
330
12
100
AcDbXrecord
280
     1
270
     1
271
     1
  0
XRECORD
  5
24
102
{ACAD_REACTORS
330
22
102
}
330
22
100
AcDbXrecord
280
     1
270
     1
271
     1
  0
XRECORD
  5
23
102
{ACAD_REACTORS
330
22
102
}
330
22
100
AcDbXrecord
280
     1
270
     1
271
     1
  0
XRECORD
  5
27
102
{ACAD_REACTORS
330
22
102
}
330
22
100
AcDbXrecord
280
     1
270
     1
271
     1
  0
XRECORD
  5
26
102
{ACAD_REACTORS
330
22
102
}
330
22
100
AcDbXrecord
280
     1
270
     1
271
     1
  0
XRECORD
  5
28
102
{ACAD_REACTORS
330
22
102
}
330
22
100
AcDbXrecord
280
     1
270
     1
271
     1
  0
XRECORD
  5
25
102
{ACAD_REACTORS
330
22
102
}
330
22
100
AcDbXrecord
280
     1
270
     1
271
     1
  0
CELLSTYLEMAP
  5
470
102
{ACAD_REACTORS
330
46F
102
}
330
46F
100
AcDbCellStyleMap
 90
        3
300
CELLSTYLE
  1
TABLEFORMAT_BEGIN
 90
        5
170
     1
 91
        0
 92
    32768
 62
   257
 93
        1
300
CONTENTFORMAT
  1
CONTENTFORMAT_BEGIN
 90
        0
 91
        0
 92
      512
 93
        0
300

 40
0.0
140
1.0
 94
        5
 62
     0
340
5D
144
0.25
309
CONTENTFORMAT_END
171
     0
 94
        0
309
TABLEFORMAT_END
  1
CELLSTYLE_BEGIN
 90
        1
 91
        1
300
_TITLE
309
CELLSTYLE_END
300
CELLSTYLE
  1
TABLEFORMAT_BEGIN
 90
        5
170
     1
 91
        0
 92
        0
 62
   257
 93
        1
300
CONTENTFORMAT
  1
CONTENTFORMAT_BEGIN
 90
        0
 91
        0
 92
      512
 93
        0
300

 40
0.0
140
1.0
 94
        5
 62
     0
340
5D
144
0.18
309
CONTENTFORMAT_END
171
     0
 94
        0
309
TABLEFORMAT_END
  1
CELLSTYLE_BEGIN
 90
        2
 91
        1
300
_HEADER
309
CELLSTYLE_END
300
CELLSTYLE
  1
TABLEFORMAT_BEGIN
 90
        5
170
     1
 91
        0
 92
        0
 62
   257
 93
        1
300
CONTENTFORMAT
  1
CONTENTFORMAT_BEGIN
 90
        0
 91
        0
 92
      512
 93
        0
300

 40
0.0
140
1.0
 94
        2
 62
     0
340
5D
144
0.18
309
CONTENTFORMAT_END
171
     0
 94
        0
309
TABLEFORMAT_END
  1
CELLSTYLE_BEGIN
 90
        3
 91
        2
300
_DATA
309
CELLSTYLE_END
  0
ENDSEC
  0
EOF
